Song name
# A B C D E F G H I J K L M N O P Q R S T U V W X Y Z

Johnny Rzeznik - Im Still Here tab

-------------------------------------------------------------------------------
			     I'm Still Here - John Rzeznik
-------------------------------------------------------------------------------
Tabbed by: Jshdaley
Email: jshdaley@gmail.com


I tabbed this song after I learned Name by the Goo Goo Dolls, I then tried this song in
this tuning off the Live version John played at Disney. This is in no way perfect
however I think it is fairly close. This is my first tab and please feel free to comment 
and give improvements!

Tuning: Db Ab Db Ab Ab eb  OR D A D A A e  <-- The same tuning as Name


Intro:

eb|----0-------0-------0-------0----|
Ab|----0-------0-------0-------0----|
Ab|----0-------0-------0-------0----|
Db|-2--2----0--0----2--2----0--0----|
Ab|-0--0----0--0----0--0----0--0----|
Db|----x-------x-------x-------x----|


Verse 1:

eb|--0----0----0----0----0----0----0----0--------------------|
Ab|--0----0----0----0----0----0----0----0--------------------|
Ab|--0----0----0----0----0----0----0----0--------------------|
Db|--2----0----2----0----2----0----4----0--------------------|
Ab|--0----0----0----0----0----0----2----0--------------------|
Db|--x----x----x----x----x----x----x----x--------------------|


eb|--0----0----0----0----0----0----0--0--0-|
Ab|--0----0----0----0----0----0----0--0--0-|
Ab|--0----0----0----0----0----0----0--0--0-|  PAUSE
Db|--2----0----2----0----2----0----4--2--0-|
Ab|--0----0----0----0----0----0----4--2--0-|
Db|--x----x----x----x----x----x----x--x--x-|

INTERLUDE:

eb|--0----0----0----0----|
Ab|--0----0----0----0----|
Ab|--0----0----0----0----|
Db|--2----0----2----0----|
Ab|--0----0----0----0----|
Db|--x----x----x----x----|

VERSE 2: (SAME AS VERSE 1)

eb|--0----0----0----0----0----0----0----0-------|
Ab|--0----0----0----0----0----0----0----0-------|
Ab|--0----0----0----0----0----0----0----0-------|
Db|--2----0----2----0----2----0----4----0-------|
Ab|--0----0----0----0----0----0----2----0-------|
Db|--x----x----x----x----x----x----x----x-------|


eb|--0----0----0----0----0----0----0--0--0------|
Ab|--0----0----0----0----0----0----0--0--0------|
Ab|--0----0----0----0----0----0----0--0--0------|
Db|--2----0----2----0----2----0----4--2--0------|
Ab|--0----0----0----0----0----0----4--2--0------|
AB|--x----x----x----x----x----x----x--x--x------|

CHORUS:

eb|--0----0----0----0----0----0----0-----0----|
Ab|--0----0----0----0----0----0----0-----0----|
AB|--0----0----0----0----0----0----0-----0----|
Db|--2----0----2----0----2----0----4----/7----|
Db|--0----0----0----0----0----0----2----/5----|
DB|--x----x----x----x----x----x----X-----X----|

eb|--0----0----0----0----0----0----0--0--0------|
Ab|--0----0----0----0----0----0----0--0--0------|
Ab|--0----0----0----0----0----0----0--0--0------|
Db|--2----0----2----0----2----0----4--2--0------|
Ab|--0----0----0----0----0----0----4--2--0------|
Db|--x----x----x----x----x----x----x--x--x------|

Bridge:


eb|--0-0-0-0-0-0-0-0--0-0-0-0-0-0-0-0-0-|
Ab|--0-0-0-0-0-0-0-0--0-0-0-0-0-0-0-0-0-|
Ab|--0-0-0-0-0-0-0-0--0-0-0-0-0-0-0-0-0-|  x2
Db|--7-7-7-7/9-9-9-9/111111121212111111-|
Ab|--5-5-5-5/7-7-7-7/-9-9-9-9-9-9-9-9-9-|
Db|--x-x-x-x-x-x-x-x--x-x-x-x-x-x-x-x-x-|

eb|--0-0-0-0-0-0-0-0-0-0-0-0-0---------|
Ab|--0-0-0-0-0-0-0-0-0-0-0-0-0---------|
Ab|--0-0-0-0-0-0-0-0-0-0-0-0-0---------|
Db|--7-7-7-7/9-9-9-9/6-6/4-4-0---------|
Ab|--5-5-5-5/7-7-7-7/4-4/2-2-0---------|
Db|--x-x-x-x-x-x-x-x-x-x-x-x-0---------|


CHORUS:

eb|--0----0----0----0----0----0----0-----0----|
Ab|--0----0----0----0----0----0----0-----0----|
AB|--0----0----0----0----0----0----0-----0----|
Db|--2----0----2----0----2----0----4----/7----|
Db|--0----0----0----0----0----0----2----/5----|
DB|--x----x----x----x----x----x----X-----X----|

eb|--0----0----0----0----0----0----0--0--0------|
Ab|--0----0----0----0----0----0----0--0--0------|
Ab|--0----0----0----0----0----0----0--0--0------|
Db|--2----0----2----0----2----0----4--2--0------|
Ab|--0----0----0----0----0----0----4--2--0------|
Db|--x----x----x----x----x----x----x--x--x------|

Outro:

eb|-0--0--0------|
Ab|-0--0--0------|
Ab|-0--0--0------| x3
Db|-4--2--0------|
Ab|-4--2--0------|
Db|-x--x--x------|

************************************

| /   slide up
| \   slide down
| h   hammer-on
| p   pull-off
| ~   vibrato
| +   harmonic
| x   Mute note
| b   Bend
| pb  Pre-bend
| br  Bend release
| pbr Pre-bend release
| brb Bend release bend

************************************
Tap to rate this tab
# A B C D E F G H I J K L M N O P Q R S T U V W X Y Z