Guitaretab - guitar tabs
Song name
# A B C D E F G H I J K L M N O P Q R S T U V W X Y Z

Johnny Smith - Shenandoah tab

Tabbed by: Sam Bevet
Email: skittlesdagod13@yahoo.com

Hereís the basic picking style for Shenandoah which brings out the chords and melody. 
not sure itís what Anais plays, but it sounds good.

Tuning: Standard, Capo 4th Fret


Verse:

  G      C               Am     C           F
e|--------------------0--0------------0----------------1---------|
B|--------1-----1--3-------1-----1h3-----1---1------------1------|
G|-0-2-0----0----------------2--------------------2--------------|
D|------------2---------------------------------3----------------|
A|--------3-----3--------0-------3-------------------------------|
E|-3-----------------------------------------1-------1-----------|

[ Tab from: http://www.guitaretab.com/j/johnny-smith/129195.html ]
  G      C               Am     C           F         Am    G    F
e|------------------------0-------------0-------------------------------|
B|----------1-----1--3------1-----1--3----1---1--------1h3---0---1------|
G|-0-0-2-0----0---------------2--------------------2-------------2------|
D|-----------------------------------------------3------------------3---|
A|----------3-----3-------0-------3--------------------0--------------3-|
E|---3----------------------------------------1--------------3---1------|


     C           F
e|--------0-----------------1-----|
B|---1h3-----1---1-------------1--|
G|--------------------2-----------|
D|------------------3-------------|
A|---3----------------------------|
E|---------------1-------1--------|

Chorus:

     Am   Am/G    F
e|---3p0-----------------1---------|
B|--------3p1-----1---------1------|
G|--------------------2--------2---|
D|------------------3------------3-|
A|---0-----------------------------|
E|--------3-------1----------------|

     C           F
e|--------0-----------------1-----|
B|---1h3-----1---1-------------1--|
G|--------------------2-----------|
D|------------------3-------------|
A|---3----------------------------|
E|---------------1-------1--------|


| /  slide up
| \  slide down
| h  hammer-on
| p  pull-off
| ~  vibrato
| +  harmonic
| x  Mute note
===============================================================================