Song name
# A B C D E F G H I J K L M N O P Q R S T U V W X Y Z

Johnny Thunders - Pipeline tab

Help us improve GuitareTab! Take a short survey!
PIPELINE - JOHNNY THUNDERS - SO ALONE LP

|---------------------------------------|
|---------------------------------------|
|---------------------------------------|
|---------------------------------------|
|--2-2-2-2-2-2-2-2-2-2-2-2-2-2-2-2------|
|-0-3-0-3-0-3-0-3-0-3-0-3-0-3-0-3-------|

|---------------------------------------|
|---------------------------------------|
|---------------------------------------|
|--0-2-0-2-4-2-0-2-4-2-4-2-0-2-0--------|
|-2-------------------------------------|
|---------------------------------------|

|---------------------------------------|
|---------------------------------------|
|--0-2-0-2-4-2-0-2-4-2-4-2-0-2-0--------|
|-2-------------------------------------|
|---------------------------------------|
|---------------------------------------|

|-----------------------------------------------|
|-----------------------------------------------|
|-4-4-4-4-5-5-5-5-4-4-4-4-5-5-5-5-4-4-4-4-2-2---|
|-4-4-4-4-5-5-5-5-4-4-4-4-5-5-5-5-4-4-4-4-2-2---|
|-2-2-2-2-3-3-3-3-2-2-2-2-3-3-3-3-2-2-2-2-0-0---|
|-----------------------------------------------|

|---------------------------------------|
|---------------------------------------|
|---------------------------------------|
|---------------------------------------|
|---------------------------------------|
|-17-16-15-14-13-12-11-10-9-8-7-6-5-4-3-| 

|---------------------------------------|
|---------------------------------------|
|---------------------------------------|
|---------------------------------------|
|--2-2-2-2-2-2-2-2-2-2-2-2-2-2-2-2------|
|-0-3-0-3-0-3-0-3-0-3-0-3-0-3-0-3-------|

|---------------------------------------|
|---------------------------------------|
|---------------------------------------|
|--0-2-0-2-4-2-0-2-4-2-4-2-0-2-0--------|
|-2-------------------------------------|
|---------------------------------------|

|---------------------------------------|
|---------------------------------------|
|--0-2-0-2-4-2-0-2-4-2-4-2-0-2-0--------|
|-2-------------------------------------|
|---------------------------------------|
|---------------------------------------|

|-----------------------------------------------|
|-----------------------------------------------|
|-4-4-4-4-5-5-5-5-4-4-4-4-5-5-5-5-4-4-4-4-2-2---|
|-4-4-4-4-5-5-5-5-4-4-4-4-5-5-5-5-4-4-4-4-2-2---|
|-2-2-2-2-3-3-3-3-2-2-2-2-3-3-3-3-2-2-2-2-0-0---|
|-----------------------------------------------|

|----------------0-----------------3-----------------1------|
|------1-------1---1-----0-------0---0-----1-------1---1----|
|----2---2---2---------0---0---0---------2---2---2----------|
|--2-------2---------0-------0---------3-------3------------|
|-----------------------------------------------------------|
|-----------------------------------------------------------|

|----------------0-----------------3-------------0-----|
|------1-------1---1-----0-------0---0-----1-----0-----|
|----2---2---2---------0---0---0---------2---2---0-----|
|--2-------2---------0-------0---------3---------2-----|
|------------------------------------------------2-----|
|------------------------------------------------0-----|

|---------------------------------------|
|---------------------------------------|
|---------------------------------------|
|--0-2-0-2-4-2-0-2-4-2-4-2-0-2-0--------|
|-2-------------------------------------|
|---------------------------------------| palm muted

|---------------------------------------|
|---------------------------------------|
|--0-2-0-2-4-2-0-2-4-2-4-2-0-2-0--------|
|-2-------------------------------------|
|---------------------------------------|
|---------------------------------------| palm muted

|-----------------------------------------------|
|-----------------------------------------------|
|-4-4-4-4-5-5-5-5-4-4-4-4-5-5-5-5-4-4-4-4-2-2---|
|-4-4-4-4-5-5-5-5-4-4-4-4-5-5-5-5-4-4-4-4-2-2---|
|-2-2-2-2-3-3-3-3-2-2-2-2-3-3-3-3-2-2-2-2-0-0---|
|-----------------------------------------------|

|---------------------------------------|
|---------------------------------------|
|---------------------------------------|
|---------------------------------------|
|---------------------------------------|
|-17-16-15-14-13-12-11-10-9-8-7-6-5-4-3-| 

|---------------------------------------|
|---------------------------------------|
|---------------------------------------|
|---------------------------------------|
|--2-2-2-2-2-2-2-2-2-2-2-2-2-2-2-2------|
|-0-3-0-3-0-3-0-3-0-3-0-3-0-3-0-3-------|

|---------------------------------------|
|---------------------------------------|
|---------------------------------------|
|--0-2-0-2-4-2-0-2-4-2-4-2-0-2-0--/14---|
|-2-------------------------------------|
|---------------------------------------|

|---------------------------------------|
|---------------------------------------|
|--0-2-0-2-4-2-0-2-4-2-4-2-0-2-0--------|
|-2-------------------------------------|
|---------------------------------------|
|---------------------------------------|

|---------------------------------------|
|---------------------------------------|
|---------------------------------------|
|---------------------------------------|
|--2-2-2-2-2-2-2-2-2-2-2-2-2-2-2-2------|
|-0-3-0-3-0-3-0-3-0-3-0-3-0-3-0-3-------|

Tabbed by Daniel H aka GO BACK TO GO

Related for Pipeline tab