Song name
# A B C D E F G H I J K L M N O P Q R S T U V W X Y Z

Johnny Thunders - One Track Mind tab

--------------------------------------------------------------------------
             One Track Mind - Johnny Thunders & The Heartbreakers
--------------------------------------------------------------------------


Intro:

e------------------------|
B------------------------|
G------------------------|
D--5--7--10--12-12-12-12-|
A--3--5--8---10-10-12-10-|
E------------------------|

Verse:

e--------------------------------------------------------------|
B--------------------------------------------------------------|
G--------------------------------------------------------------|
D--5--2---------7--4---------10--7---------12--9-9-10-10-12-12-|
A--3----3-3-3---5----5-5-5---8-----8-8-8---10------------------|
E--------------------------------------------------------------|

Chorus:

e-----------------------------                              e----------|
B-----------------------------                              B----------|
G-----------------------------                              G----------|
D--5-5-5-5-5-5----------------                              D----------|
A--3-3-3-3-3-3--3-3-3-----3-5-                              A--5-5-5-5-|
E---------------1-1-1-1/5-----   repeat a few times then:   E--3-3-3-3-|


              D--5-
              A--3-
Ends with a:  E----            (Sorry, no solo)
Tap to rate this tab
 
# A B C D E F G H I J K L M N O P Q R S T U V W X Y Z