Song name
# A B C D E F G H I J K L M N O P Q R S T U V W X Y Z

Joie De Vivre - Sundays tab

(/) Slide Up  (\) Slide Down  (h) Hammer On  (p) Pull Off  (b) Bend (r) Release (v) Vibrato

"Chorus/Beginning"

E|------------|
B|---------2--|
G|------6--2--|
D|--11--7--2--|
A|--9---5--0--|
E|------------|

Verse1

E|--------------------------------------------------------------------------------------------|
B|--------------------------------------------------------------------------------------------|
G|--------------6-----------------------6-----------------------6-----------7-----7-----7-----|
D|--------7--------7-----7--------7--------7-----7--------7--------7--------------------------|
A|--0--0-----0--------0-----0--0-----0--------0-----5--5-----5--------5--5-----5-----5--------|
E|--------------------------------------------------------------------------------------------|



E|--------------|
B|--------------|
G|-----6-----6--|
D|--------------|
A|--5-----5-----|
E|--------------|

Verse 2

E|-----------------------------------------------------------------------|
B|-----------------------------------------------------------------------|
G|--------6-----6--------9-----9-----9-----6--------7-----7-----7-----6--|
D|--7--7-----7-----7--7-----7-----7-----7-----7--7-----7-----7-----7-----|
A|-----------------------------------------------------------------------|
E|-----------------------------------------------------------------------|



E|-----------------------------------------------------------------------------------------------|
B|-----------------------------------------------------------------------------------------------|
G|--------------6-----------------------6-----------------------6--------7-----7-----6-----6-----|
D|--------7--------7-----7--------7--------7-----7--------7--------7--------7-----7-----7-----7--|
A|--9--9-----9--------9-----9--9-----9--------9-----5--5-----5--------5--------------------------|
E|-----------------------------------------------------------------------------------------------|

End Chords

E|----------------------|
B|----------------------|
G|--6h9--6--7--6--6--6--|
D|--7----7--7--7--7--7--|
A|----------------9--5--|
E|----------------------|
Tap to rate this tab
 
# A B C D E F G H I J K L M N O P Q R S T U V W X Y Z