Song name
# A B C D E F G H I J K L M N O P Q R S T U V W X Y Z

Jojo - Not That Kinda Girl tab

Help us improve GuitareTab! Take a short survey!
Jojo
Not That Kind Of Girl
Jojo
2004
Tabbed by: paramore_fans@yahoo.com

Tuning: Standard EADGBe

Intro:

Guitar 1:
   Eb5   Bb/D   C5   F5   Eb5   
  C5   Bb5
e|-----|------|----|----|-----|------|----|-----|
B|-----|------|----|----|-----|------|----|-----|
G|-8---|-7----|-5--|----|-8---|-7----|-5--|-3---|
D|-8---|-8----|-5--|-3--|-8---|-8----|-5--|-3---|
A|-6---|-5----|-3--|-3--|-6---|-5----|-3--|-1---|
E|-----|------|----|-1--|-----|------|----|-----|

Guitar 2:
e|------------13-----------|-------------|
B|-15-----15---------13-15-|-16-15-13----|
G|-----15---------15-------|----------15-|
D|-------------------------|-------------|
A|-------------------------|-------------|
E|-------------------------|-------------|
             x2

Above is the pattern from the start up to end of this song
Related for Not That Kinda Girl tab