Song name
# A B C D E F G H I J K L M N O P Q R S T U V W X Y Z

Jokke Med Tourettes - Narkoman tab

Transkribed by Jran94
Jrn_nrmn@hotmail.com

Jokke Med Tourettes
Narkoman solo

|-----------------------------------------------|
|-----------------------------------------------|
|-----------------------------------------------|
|--------------------2--------------------------|
|---0-2-3-2----0-2-3---------2-3-2-----3-5-3-7~-|
|-0----------0---------0-3/5-------3-3----------|

|-------------------------------------------------------------------|
|-------------------------------------------------------------------|
|-------------------------------------------------------------------|
|-3-2-3-5-3-2-------------2-2-3-2-0---0-2-0---2-5-0-5/--------------|
|-------------5-7-5-3-0-3-----------3-------3-----------------------|
|-------------------------------------------------------------------|

|-------------------------------------------------------------------|
|-------------------------------------------------------------------|
|-------------------------------------------------------------------|
|-------------------------------------------------------------------|
|-6-7-6-7-6-7-6-11-12-11-12-11-12-11-7-6-7-6-7-6-7-6-9-10-9-10-9-10-|
|-------------------------------------------------------------------|
Tap to rate this tab
 
# A B C D E F G H I J K L M N O P Q R S T U V W X Y Z