Song name
# A B C D E F G H I J K L M N O P Q R S T U V W X Y Z

Jolly Intense - Tonight tab

INTRO + CHORUS
e|--------------------------------------|
B|--------------------------------------|
G|--6-6-6-6-----------------------------| 
D|--6-6-6-6--6-6-6-6--8-8-8-8--4-4-4-4--| X8
A|--4-4-4-4--6-6-6-6--8-8-8-8--4-4-4-4--|
E|-----------4-4-4-4--6-6-6-6--2-2-2-2--|

VERSE 1 (no guitar)

CHORUS
e|--------------------------------------|
B|--------------------------------------|
G|--6-6-6-6-----------------------------| 
D|--6-6-6-6--6-6-6-6--8-8-8-8--4-4-4-4--| X8
A|--4-4-4-4--6-6-6-6--8-8-8-8--4-4-4-4--|
E|-----------4-4-4-4--6-6-6-6--2-2-2-2--|

VERSE 2 (no guitar)

CHORUS
e|--------------------------------------|
B|--------------------------------------|
G|--6-6-6-6-----------------------------| 
D|--6-6-6-6--6-6-6-6--8-8-8-8--4-4-4-4--| X8
A|--4-4-4-4--6-6-6-6--8-8-8-8--4-4-4-4--|
E|-----------4-4-4-4--6-6-6-6--2-2-2-2--|

VERSE 3

e|--------------------------------------------------------------|
B|--------------------------------------------------------------|
G|--6-6-6-6-6-6-6-----------------------------------------------| 
D|--6-6-6-6-6-6-6--6-6-6-6-6-6-6--8-8-8-8-8-8-8--4-4-4-4-4-4-4--| X2
A|--4-4-4-4-4-4-4--6-6-6-6-6-6-6--8-8-8-8-8-8-6--4-4-4-4-4-4-4--|
E|-----------------4-4-4-4-4-4-4--6-6-6-6-6-6-6--2-2-2-2-2-2-2--|
    * * * *        * * * *        * * * *        * * * *

CHORUS + OUTRO
e|--------------------------------------|
B|--------------------------------------|
G|--6-6-6-6-----------------------------| 
D|--6-6-6-6--6-6-6-6--8-8-8-8--4-4-4-4--| (repeat till fade out)
A|--4-4-4-4--6-6-6-6--8-8-8-8--4-4-4-4--|
E|-----------4-4-4-4--6-6-6-6--2-2-2-2--|

GUITAR 2 (played in the background during last chorus

e|--------------------------------------|
B|--8-8---------------------------------|
G|------7-7-8-8-8-5-8-7-----------------| 
D|--------------------------------------| X8
A|--------------------------------------|
E|--------------------------------------|


* = Palm mute
Tap to rate this tab
# A B C D E F G H I J K L M N O P Q R S T U V W X Y Z