Guitaretab - guitar tabs
Song name
# A B C D E F G H I J K L M N O P Q R S T U V W X Y Z

Jon Spencer Blues Explosion - Afro tab

#----------------------------------PLEASE NOTE---------------------------------#
#This file is the author's own work and represents their interpretation of the #
#song. You may only use this file for private study, scholarship, or research. #
#------------------------------------------------------------------------------##
From: ihbryant@mailhost.ecn.uoknor.edu (Ira Houston Bryant Iv)

Afro
from the album Extra Width
by The Jon Spencer Blues Explosion
tabbed by Ira H. Bryant IV
(ihbryant@mailhost.ecn.uoknor.edu)


Note:  The 'solo' part of this song was done on their homemade distortion
creator  (it has an antenna, and the frequency of distortion is determined
by the distance from the antenna to a person.

I have no clue what the lyrics are.  If anybody knows, please post them.

Riff 1:
     Esus2                   Dsus2
e:---7-----7--7--------------5-----5--5--|
B:---7-----7--7--------------5-----5--5--|
G:---9-----9--9--------9--8--7-----7--7--|
D:---9-----9--9-----9--------7-----7--7--|
A:---7-----7--7--------------5-----5--5--|
E:---------------------------------------|
[ Tab from: http://www.guitaretab.com/j/jon-spencer-blues-explosion/128998.html ]
Riff 2:
    B5                            B5
e:------------------------------------------------------------|
B:-----------------------------------------7-7----------------|
G:--------------------7b(7.5)------------------9-9-7b(7.5)----|
D:--9-----9--9--7--9-----------7--9---9-9------------------7--|
A:--9-----9--9--------------------9---9-9---------------------|
E:--7-----7--7--------------------7---7-7---------------------|

Play Riff 2 Three Times

Riff 3:
    B5                            B5
e:------------------------------------------------------------|
B:------------------------------------------------------------|
G:--------------------7b(7.5)---------------------------------|
D:--9-----9--9--7--9-----------7--9---9-9---------7-----------|
A:--9-----9--9--------------------9---9-9---7--9--------------|
E:--7-----7--7--------------------7---7-7---------------------|


Play Riff 1 Three Times

Drums

Play Riff 1

Drums

Play Riffs 2 or 3 Nine Times
(There seems to be no particular order, they're interchangable)

Play Riff 1

Play Riffs 2 or 3 Nine Times

Play Riff 1

Play Riff 3

(Again!)

PLay Riff 1

Play Riff 3

e:---------|
B:---------|
G:---------|
D:---------|
A:---------|
E:--7---9--|

(Distortion Solo)

Play Riffs 2 or 3 Twelve Times

Play Riff 1

Play Riff 3

Play Riff 1

e:-----|
B:-----|
G:-----|
D:--9--|
A:--9--|
E:--7--|


Ira
______________________________________________________________________________
|  ihbryant@mailhost.ecn.uoknor.edu |  Member, Triangle Fraternity, OK Chap. |
|----------------------------------------------------------------------------|
|  Let us go and be killed where we are told to go.  Is life worth so many   |
|  questions?	 --Athos, from "The Three Musketeers" by Alexandre Dumas     |
------------------------------------------------------------------------------
Related for Afro tab
Afro chords by Jon Spencer Blues Explosion