Guitaretab - guitar tabs
Song name
# A B C D E F G H I J K L M N O P Q R S T U V W X Y Z

Jon Swift - Run River tab

----------------------------------------------------------------------- 
                         jon swift - run river (shelter O.s.t)
-----------------------------------------------------------------------
tabbed by: delarity
email: delarity@yahoo.de
tuning: standard / capo 2nd fret

note: i couldnt find a complete tabbed out version, but some parts were
tabbed and discussed in a forum. so i took these parts and made a complete
version. its my first tab and im not sure about the "...and hope that one
day i will die beneath the ocean" part. if you have any corrections or
suggestions please email me. thx and have fun.

All tabs are relative to capo.


intro: c      g


  c             g             Am            F             c
e|----------------------------------------------------------------------|
B|-1------1------0------0------1------1------1------1------1------1-----|
G|-----0------0------0------0------2------2------2------2------0------0-|
D|---2------2------0------0------2------2------3------3------2------2---|
A|-3------3------2------2------0------0------0------0------3------3-----|
E|----------------------------------------------------------------------|
  run   run     river         carry me      to my home    the ocean


[ Tab from: http://www.guitaretab.com/j/jon-swift/68103.html ]
   g            Am            Am*           Am**          Am*
e|-----------------------------0-------------3-------------0------------|
B|-0------0------1------1-------------1-------------1-------------1-----|
G|-----0------0------2------2------2------2------2------2------2------2-|
D|---0------0------2------2------2------2------2------2------2------2---|
A|-2------2------0------0------0------0------0------0------0------0-----|
E|----------------------------------------------------------------------|
 carry  me     away,


  
c               g             Am          F          c               g       
i know i have a home somewhere far and we move like the stars make you feel 
             Am      Am*
like you got friends,

F                        g                 c   g Am F c g Am Am* Am** Am* c g
stars will make you feel - like you got friends

c                g                Am          F              c           g
follow the empty valley, past the hill to the marches of the yesterwhere calm

        Am    Am* Am** Am*
and peacefull,

c                   g              Am         F       g(?)            
in the light of the moon, with the river i do run and hope that one day

                        Am   Am*
i will die, beneath the ocean 

F               g              c   g Am F c g Am Am* Am** Am* c g
that this river - will forever run 





| /  slide up
| \  slide down
| h  hammer-on
| p  pull-off
| ~  vibrato
| +  harmonic
| x  Mute note
=============================================================================