Guitaretab - guitar tabs
Song name
# A B C D E F G H I J K L M N O P Q R S T U V W X Y Z

Jonas Brothers - Mandy tab

Okay, i'll only doing the intro because theres only one other tab on this website of it, 
it doesn't have what kevin plays, so here it is

E--------------------------------------------|
B--------------------------------------------|
G--------------------------------------------|
D----666-------------------------------------|
A----666-------------------------------------|
E----444-hold--------------------------------| i'm lazy and don't feel like putting this 
but the other tab has it right.

E--------------------------------------|
B-7-7-77-9-9-99-12-12-1212-7-----------|
G--------------------------------------|
D--------------------------------------|
A--------------------------------------|
E--------------------------------------|

or this

E----------------------------------------------|
B----------------------------------------------|
G------------------9-9-99-11-11-1111--9--------|
D------------------------------(^11's not 1's)-|
A----------------------------------------------|
E----------------------------------------------|

Then the chourus comes in and theres two ways to play it, i'll show you both.
[ Tab from: http://www.guitaretab.com/j/jonas-brothers/153597.html ]
E-----------------------------------------------------------------------11-11-11-11-13-11-|
B--7-7-77-9-9-99-12-12-1212--16-14-13-11-----7-7-77-9-9-99-12-12-1212---------------------|
G-----------------------------------------------------------------------------------------|
D-----------------------------------------------------------------------------------------|
A-----------------------------------------------------------------------------------------|
E-----------------------------------------------------------------------------------------|

or

E-------------------------------------13-11-10-8-------------------------------11-11-11-11-13-11-|
B--7-7-77-9-9-99-12-12-1212--------------------------7-7-77-9-9-99-12-12-1212--------------------|
G------------------------------------------------------------------------------------------------|
D------------------------------------------------------------------------------------------------|
A------------------------------------------------------------------------------------------------|
E------------------------------------------------------------------------------------------------|

Sorry it's really messy, and kind of bad. i won't say its perfect, but i think its 
accurate. if you need any help with it, just comment, or email me at    skatertkc11020@hotmail.com
Related for Mandy tab