Song name
# A B C D E F G H I J K L M N O P Q R S T U V W X Y Z

Jonas Brothers - Burning Up tab

                              Burning Up
                            By: Jonas Brothers
                         Tabbed By: MusicLover113
                          Please Rate !!!!!!!!! :)

I haved tabbed out Nicks and Kevins Part. They are about the same but Kevin goes 
to a differnt power chord in the chorus.

(Both Guitars)
  Verse

E[------------------------------------]
B[------------------------------------]
G[-4--44--7--77-----------------------]
D[-4--44--7--77--7--77--5--55---------] X2
A[-2--22--5--55--7--77--5--55---------]
E[---------------5--55--3--33---------]

Chorus
(Nicks Part)

E[----------------------------------]
B[----------------------------------]                          5
G[-4------7-------------------------]                          5
D[-4-X10--7-X10--7------5----------]  X2  (2ND TIME ONLY PLAY 3 ONCE)
A[-2------5------7-X10--5-X10-------]
E[---------------5------3-----------]

(Kevins Part)

E[--------------------------------]
B[--------------------------------]                         5  
G[-9------7-----------------------]                         5
D[-9-X10--7-X10-7------5----------]  X2 (2ND TIME ONLY PLAY 3 ONCE)
A[-7------5-----7-X10--5-X10------]
E[--------------5------3----------]

Verse 
(Both Guitars)

E[--------------------------------------]
B[--------------------------------------]                        
G[-4-----7------------------------------]                         
D[-4-X3--7-X3--7-----5-----------------] X3  
A[-2-----5-----7-X3--5-----------------]
E[-------------5-----3-----------------]

E[-------------------------------]
B[-------------------------------]
G[-4----7------------------------]
D[-4X3--7-X3--7----5--7--9-------]
A[-2----5-----7-X3-5--7--9-------]
E[------------5----3--5--7-------]          5
                                            5
Repeat Chorus (on second time dont hold out 3 )

Bridge
(Both Guitars)

E[---------------------------]
B[---------------------------]
G[-4-----7-------------------]
D[-4-X3--7-X3---9---7---5----]
A[-2-----5------9---7---5----]
E[--------------7---5---3----]

(No Guitars just singing)

Chorus
(Just Kevins Guitar plays)

E[----------------------------]
B[----------------------------]
G[-9-----7--------------------]
D[-9-x8--7-x8--7------5-------]
A[-7-----5-----7-x8---5-x8----]
E[-------------5------3-------]

(Both Guitars)

E[-------------------------------]
B[-------------------------------]
G[-4-----7-----------------------]
D[-4-X10-7-X10-7------5----------]  X2
A[-2-----5-----7-X10--5-X10------]
E[-------------5------3----------]

Rapping Part IS JUST THE VERSE    5
                                  5
Then repeat the chorus and end on 3 chord                             
Tap to rate this tab
# A B C D E F G H I J K L M N O P Q R S T U V W X Y Z