Song name
# A B C D E F G H I J K L M N O P Q R S T U V W X Y Z

Jonas Brothers - Tonight tab

Intro:

easiest Strum pattern for me is;

  U U UDU U U UDU U U UDU U U U-D-U
|----------------------------------- |
|----------------------------------- |
|-9-9-989-9-9-989-9-9-989-9-9-141413-| 2x
|-9-9-989-9-9-989-9-9-989-9-9-141413-|
|-7-7-767-7-7-767-7-7-767-7-7-121411-|
|----------------------------------- |

Verse:

|-----------------------------------------------|
|---5-------------------------------------------|
|----------4-------6------8---------------------|
|-6------4-----------------------------(2 times)|
|----------------7------9-----------------------|
|-----------------------------------------------|

|--------------------------------------------|
|---5----------------------------------------|
|----------4-------6-------------------------|
|-6------4-----------------------(on 3 times)|
|----------------7---------------------------|
|--------------------------------------------|
so here we are again,  throwing punchlines no one wins
as the morning sun begins to rise

Pre-chorus:

|--------------------------------------------------------|
|--------------------------------------------------------|
|--------------------------------------------------------|
|-----------------------------------------------------9\-|
|-----------------------------------------------------9\-|
|-----x x x-0-2-0-2-x x x-0-2-0-2-x x x-3-4-3-4-3-4-3-7\-|
We're fading fast,     and we won't     this out

Chorus:

|-----------------|
|-----------------|
|------4----------| 4x
|-2----4-8x-7-----|
|-2-8x-2----7-16x-|
|-0---------5-----|

the chorus riff for the 2nd guitar is same as the intro except 
there's no..
|-------|
|-------|
|-14-13-|
|-14-13-|
|-12-11-|
|-------|

Back to Intro:

|----------------------------------- |
|----------------------------------- |
|-9-9-989-9-9-989-9-9-989-9-9-141413-| 2x
|-9-9-989-9-9-989-9-9-989-9-9-141413-|
|-7-7-767-7-7-767-7-7-767-7-7-121411-|
|----------------------------------- |

Verse 2:

|-----------------------------------------------|
|---5-------------------------------------------|
|----------4-------6------8---------------------|
|-6------4-----------------------------(2 times)|
|----------------7------9-----------------------|
|-----------------------------------------------|

|--------------------------------------------|
|---5----------------------------------------|
|----------4-------6-------------------------|
|-6------4-----------------------(on 3 times)|
|----------------7---------------------------|
|--------------------------------------------|

2nd Pre-chorus
|--------------------------------------------------------|
|--------------------------------------------------------|
|--------------------------------------------------------|
|-----------------------------------------------------9\-|
|-----------------------------------------------------9\-|
|-(pause)-0-2-0-2-2-0-2-0-2-0-2-0-2-2-0-3-4-3-4-3-4-3-7\-|

(something like that i think)

Chorus:
|-----------------|
|-----------------|
|------4----------| 4x (2nd Guitar plays intro again with this)
|-2----4-8x-7-----|
|-2-8x-2----7-16x-|
|-0---------5-----|


The part where nick sings this line: "We don't have to fight
We just gotta try"
|------------------------------------------------------------|
|------------------------------------------------------------|
|-6--------------------------------6-------------------------|
|-6-8x-----------------7----4------6-8x---------------7----7-|
|-4--------------------7-8x-4-16x--4------------------7-8x-7-|
|----------------------5----2-------------------------5----5-|
      we don't have to fight            we just gotta try

Then Play Chorus again 'til the end

the lines:
Well, there's no need to fight
We're just wasting time
(Tonight)
If you give it time
Well then maybe you'll find
(We might work this out)
Well, we know we're in love
So let's keep it alive
Keep it alive, keep it alive
I'm starting to see the morning light
We finally work this out
Tap to rate this tab
 
# A B C D E F G H I J K L M N O P Q R S T U V W X Y Z