Jonas Brothers - Feeling Alive tab

This is my first tab so any feedback will help. 
I hope you enjoy it!

Standard tuning: EADGBe


Intro:(HEEEY! This is...)
e|------------|
B|------------|
G|-4----------|
D|-4----------|
A|-2----------|
E|------------|

Verse:(My heart goes boom...)
e|------------|
B|------------|
G|-4----------|
D|-4----------|
A|-2----------|
E|------------|

(Have you ever felt...) 
e|---------------------|
B|----0--------0-------|
G|----0--4-----0--4----|
D|-6--2--4--6--2--4--4-|
A|-6--2--2--6--2--2--4-|
E|-4--0-----4--0-----2-|
     |Em|     |Em|


Chorus:(HEEEY! This is...)
e|---------------------------|
B|----0-----------0----------|
G|-4--1--4--4--4--1--4-----4-|
D|-4--2--4--4--4--2--4--4--4-|
A|-2--2--2--2--2--2--2--4--2-|
E|----0-----------0-----2----|
     |E|         |E|


Verse:(The kick drum starts...)
e|------------|
B|------------|
G|-4----------|
D|-4----------|
A|-2----------|
E|------------|

(Have you ever felt...)
e|---------------------|
B|----0--------0-------|
G|----0--4-----0--4----|
D|-6--2--4--6--2--4--4-|
A|-6--2--2--6--2--2--4-|
E|-4--0-----4--0-----2-|
     |Em|     |Em|


Chorus:(HEEEY! This is...)
e|---------------------------|
B|----0-----------0----------|
G|-4--1--4--4--4--1--4-----4-|
D|-4--2--4--4--4--2--4--4--4-|
A|-2--2--2--2--2--2--2--4--2-|
E|----0-----------0-----2----|
     |E|         |E|


Bridge:(Cause were not alone...)
e|----3--------3--------3----------|
B|----3--------3--------3-----0----|
G|-4--0--7--4--0--7--4--0--7--0----|
D|-4--0--7--4--0--7--4--0--7--2--4-|
A|-2--2--5--2--2--5--2--2--5--2--4-|
E|----3--------3--------3-----0--2-|
     |G|      |G|      |G|   |Em|


Chorus:(HEEEY! This is...)
e|---------------------------|
B|----0-----------0----------|
G|-4--1--4--4--4--1--4-----4-| 3x
D|-4--2--4--4--4--2--4--4--4-|
A|-2--2--2--2--2--2--2--4--2-|
E|----0-----------0-----2----|
     |E|         |E|


(Heey, this is...)
e|------------|
B|------------|
G|-4----------|
D|-4----------|
A|-2----------|
E|------------|
Tap to rate this tab
 
# A B C D E F G H I J K L M N O P Q R S T U V W X Y Z