Song name
# A B C D E F G H I J K L M N O P Q R S T U V W X Y Z

Jones Rickie Lee - Chuck Es In Love tab

intro:
E-------------------------|----------------------------|
B--5------------2\1/2\1/2-|-5--------------------------|
G------------2--2\1/2\1/2-|-----------2--2--4/6--2h4-2-|
D--------2h4--------------|-------2h4------------------|
A----2h4------------------|---2h4----------------------|
e--5----------------------|-5--------------------------|

E-------------------------|----------------------------|
B--5------------2\1/2\1/2-|-5--------------------------|
G------------2--2\1/2\1/2-|-----------2----------------|
D--------2h4--------------|-------2h4------------------|
A----2h4------------------|---2h4--------2-------------|
e--5----------------------|-5--------------------------|




Enjoy this is a great tune. I believe this intro to be just as recorded but having
a few problems with the rest of the song...can't seem to find all the correct
jazzy chords. If somebody has them as per the recording please would you add them.
Tap to rate this tab
# A B C D E F G H I J K L M N O P Q R S T U V W X Y Z