Song name
# A B C D E F G H I J K L M N O P Q R S T U V W X Y Z

Jorge Drexler - High Dry tab

INTRO

E----------------------------------------------------------|
B----------------------------------------------------------|
G------11--------------9-------------7------------6--------|
D----------0--------------0-------------0------------0-----|
A-------------12---10--------10---9--------9---7--------7--|
D---0------------------------------------------------------|

E----------------------------------------------------------|
B----------------------------------------------------------|
G------4-----------2-------------0------------7------------|
D---------0-----------0-------------0------------4---------|
A---5--------5---4--------4---2--------2---0--------0------|
D----------------------------------------------------------|

CHORUS

E----------------------------------------------------------------------------|
B----------------------------------------------------------------------------|
G----------------------------------------------------------------------------|
D---------0--0-----0--------0--0-----0--------0--0-----0--------0--0-----0---|
A---------------4-----------------4-----------------4-----------------4------|
D---2--2--------------2--2--------------5--5--------------5--5---------------|

E----------------------------------------------------------------------------|
B----------------------------------------------------------------------------|
G----------------------------------------------------------------------------|
D---------0--0-----0--------0--0-----0--------0--0-----0-----0-----0---------|
A---------------4-----------------4-----------------4-----7-----5-----4h5----|
D---0--0--------------0--0--------------0--0---------------------------------|
Tap to rate this tab
 
# A B C D E F G H I J K L M N O P Q R S T U V W X Y Z