Guitaretab - guitar tabs
Song name
# A B C D E F G H I J K L M N O P Q R S T U V W X Y Z

Jorma Kaukonen - Ill Be All Right tab

Jorma Kaukonen

"I'll Be Alright"

Quah

   G             D         G       Gmaj7
e-------7----|--5------|--3------|--2------|
b--/8--------|--7------|--3------|----3----|
g----------7-|---------|---------|------4--|
d--/9--------|------7--|------5--|---------|
a------------|--0------|---------|---------|
E------------|---------|--3------|--2-------

-------7----|--5------|--3------|--2------|-7---9---|--10------|
--/8--------|--7------|--3------|----3----|-8---10--|--10------|
----------7-|---------|---------|------4--|-7---9---|----------|
--/9--------|------7--|------5--|---------|-9---11--|--12------|
------------|--0------|---------|---------|---------|----------|
------------|---------|--3------|--2------|---------|----------|
[ Tab from: http://www.guitaretab.com/j/jorma-kaukonen/117795.html ]
e--12-----|--9--9----|-------------|----------|------9--|-10--10--|
b--9------|-----10---|----12-------|-10--10---|--12--10-|-10--10--|
g--9------|-----9----|----------9--|-----11---|--11--9--|-----11--|
d---------|----------|-------11----|-----12---|--12-----|-12--12--|
a---------|--0-------|-------------|-0--------|---------|---------|
E--0------|----------|--0----------|----------|---------|---------|

e--9---7--|--5--5---|----5-----|--7------|--5---3--|--2--2--|----2---|
b--10--8--|-----7---|-------7--|------8--|---------|--3--3--|----3---|
g--9---7--|-----7---|-------7--|------7--|--6---4--|-----4--|------4-|
d--11--9--|---------|-------7--|--9------|--7---5--|--------|--------|
a---------|--0------|--0-------|---------|---------|--------|--------|
E---------|---------|----------|---------|---------|--2-----|-2------|
                   Bm         A
e--5----|-------|-------|---------|---------|---0------|-2-----|--0------|
b-----7-|--3----|----3--|-----2---|--3----3-|--------3-|----3--|-------3-|
g-------|----4--|--4----|--2------|--2------|----------|-------|---------|
d-------|-------|-------|-------2-|--0--0---|------0---|----0--|-----0---|
a--0----|-------|-------|--0------|---------|----------|-------|---------|
E-------|--3----|--2----|---------|--2------|-3--------|-2-----|-3-------|

*Will post rest when i figure it out..*
Related for Ill Be All Right tab