Song name
# A B C D E F G H I J K L M N O P Q R S T U V W X Y Z

Jose Andrea - Aqui Estoy tab

esta es mi segunda tab espero les sirva de algo kabrones!

intro y versos
--------------------------------------------|
-----5--3--6------5--6--5-----5-------------|
--7--5--4--7---7--5--5--5--7--5-------------|
--7------------7-----------7----------------|
--------------------------------------------|
--------------------------------------------|

letra:

He viajado a través de tu piel que fue el refugio
,que fue mi hogar,donde moría de sed mi soledad.
Trae tu voz,trae tu calor que el frio quema mi alma,
y no sé con que arroparme.Mi amor ¿donde estás?...

C5 G5 D5                    BIS               BIS
         Cuando cae la noche no logro encontrar el camino
         C5      G5      D5
         de vuelta a empezar.
              A5G5   F5              A5
         Yo estoy    pagando por un error.
              A5G5   F5              A5
         Yo estoy    mendigando tu perdón.

arreglo estribillo

-------------------|
-------------------|
--7-5--------------|
------7-5-7--------|
-------------------|
-------------------|

Para reclamaciones, amenazas, correcciones y pedidos son bienvenidos a mi correo grial988@hotmail.com
saludos para toda la banda de Acapulco gro.
Tap to rate this tab
# A B C D E F G H I J K L M N O P Q R S T U V W X Y Z