Joseph Mohr - Stille Nacht Heilige Nacht tab

Stille Nacht, Heilige Nacht
(Silent Night, Holy Night)

A very good Lesson for Beginners

Tabbed by Fepo 04/11/2010

Have a nice Christmas Time

e|------------------|---------------------|
B|------------------|---------------------|
G|------------------|---------------------|
D|--5-----7--5------|--5-----7--5---------|
A|---------------7--|---------------7-----|
E|------------------|---------------------|


e|-----------------------------------------|
B|-----------------------------------------|
G|--7---7----4------5---5------------------|
D|----------------------------5------------|
A|-----------------------------------------|
E|-----------------------------------------|

e|-----------------------------------------|
B|-----------------------------------------|
G|---------5---4---------------------------|
D|-7---7-----------7---5---7---5-----------|
A|---------------------------------7-------|
E|-----------------------------------------|

e|---------------------------------------------|
B|---------------------------------------------|
G|---------5---4-------------------------------|
D|-7---7-----------7---5---7---5---------------|
A|---------------------------------7-----------|
E|---------------------------------------------|

e|-----------------------------|-----------------------------------|
B|----------6---------------5--|-----------------------------------|
G|--7-7-7--------7---4---5-----|-5---------------------------------|
D|-----------------------------|----5-------5--3-------------------|
A|-----------------------------|--------7----------5----3----------|
E|-----------------------------|-----------------------------------|

Tap to rate this tab
 
# A B C D E F G H I J K L M N O P Q R S T U V W X Y Z