Song name
# A B C D E F G H I J K L M N O P Q R S T U V W X Y Z

Josh Clemons - What Child Is This tab

Hmm not entirely sure how new this song is but no tab so i'll take shot, i never tab much so ya haha.

Tuning:Drop D

Intro

e----------------|
B----------------|
G----------------| This a few times
D----------------|
A----------------|
D-0-0-0-0-0-0-0-0|

Piano altermates between D5 and C5. works for guitar to.
Verse-Sustained D note continues whille piano goes D5,C5,Bb5,A5

Chorus-Single Strokes
e--------------|e--------------|
B--------------|B--------------|
G---7-5---3----|G---7-5---3-5-7|
D-3-7-5-7-3-5-7|D-3-7-5-7-3-5-7|
A-3-5-3-7-1-5-7|A-3-5-3-7-1-3-5|
D-3-x-x-7-x-5-7|D-3-x-x-7-x-x-x|

Alternates between D5 and C5

verse
First Guitar Palmed Muted
e--------|
B--------|
G--------|Repeated
D-0-0-0-0|
A-0-0-0-0|
D-0-0-0-0|

2nd Guitar Single strokes
e---------|
B---------|
G-7-5-3-2-|
D-7-5-3-2-|
A-5-3-1-0-|
D-X-X-X-X-|

Repeat Chorus

Ending goes on for sometime like so.Also single strokes.
e----------|
B----------|
G----------|
D-5-1-8-10-|
A-5-1-8-10-|
D-5-1-8-10-|

End on 555xxx
Tap to rate this tab
 
# A B C D E F G H I J K L M N O P Q R S T U V W X Y Z