Guitaretab - guitar tabs
Song name
# A B C D E F G H I J K L M N O P Q R S T U V W X Y Z

Josh Kelley - Amen tab

Josh Kelley - Amen Solo Tab
Tabbed By: Ryan Morrissey
Email: morsels2319@netscape.net


e|-------------------------------------------8h6-6--------------------|
B|--10--10-11-10-8-10--8---8-----8-10-10-10---------10h8-8--10-8-6-6--|
G|----------------------10--10----------------------------------------|
D|--------------------------------------------------------------------|
A|--------------------------------------------------------------------|
E|--------------------------------------------------------------------|

[ Tab from: http://www.guitaretab.com/j/josh-kelley/130318.html ]
e|------------------------------------------------|
B|--------------6-8-6---------------6h8-6--5h6-5--|
G|------5---7-5-------7-5------7-5----------------|
D|--5h7---7---------------5h7---------------------|
A|------------------------------------------------|
E|------------------------------------------------|


e|-----------------------------------|
B|------6-8-6------------------------|
G|--7-5-------7-----5-7-5------------|
D|--------------5-7-------7-5-2---2--|
A|------------------------------4----|
E|-----------------------------------|
Related for Amen tab
×
Amen