Song name
# A B C D E F G H I J K L M N O P Q R S T U V W X Y Z

Joshua Hyslop - What Have I Done chords

Highlighted       Show chord diagrams
Joshua Hyslop - What Have I Done
http://www.joshuahyslop.com/


CAPO ON FRET 7, STANDARD TUNING

VERSE:

|---2------3-3-3-----------------0-----0---2----3----2----------------------|
|---3------3-3-3-----------------1-----1---3----3----3----------------------|
|---2------0-2-0-----------------0-----0---2----2----2----------------------|
|----------2-2-0-------------0---2-----0------------------------------------|
|--------------2-------------0---3-----2------------------------------------|
|--------------3-------------2---0-----3------------------------------------|
    D   A7SUS4 G                 C     G/C D




|---2------3-3-3-----------------0-----0---2----3----2----------------------|
|---3------3-3-3-----------------1-----1---3----3----3----------------------|
|---2------0-2-0-----------------0-----0---2----2----2----------------------|
|----------2-2-0-------------0---2-----0------------------------------------|
|--------------2-------------0---3-----2------------------------------------|
|--------------3-------------2---0-----3------------------------------------|
    D   A7SUS4 G                 C     G/C D

    I      have surrendered, my hopes, my dreams



|-----------------0----------------0---------------------------------|
|-----------------1----------------1---------------------------------|
|-----------------0----------------0---------------------------------|
|-----------------2----------------0---------------------------------|
|-----------------3----------------2---------------------------------|
|-----------------0----------------3---------------------------------|
                  C                G/C

 And all of these things, they are yours



|-----------------0----------------0----2----3----2------------------|
|-----------------1----------------1----3----3----3------------------|
|-----------------0----------------0----2----2----2------------------|
|-----------------2----------------0---------------------------------|
|-----------------3----------------2---------------------------------|
|-----------------0----------------3---------------------------------|
                  C                G/C  D

Whatever they     bring, they are  yours



(Repeat chords for verse above)

I don't remember what it was like
To look in your eyes, and feel the love
Feel no surprise, for it was enough


CHORUS:

|-------------0-----------------3---------------------------------|
|-------------1-----------------3---------------------------------|
|-------------0-----------------0---------------------------------|
|-------------2-----------------0---------------------------------|
|-------------3-----------------2---------------------------------|
|-------------0-----------------3---------------------------------|
              C                 G

What have I   done? What have I done?



|-----------0-----------------0----2----3----2------------------|
|-----------1-----------------1----3----3----3------------------|
|-----------0-----------------0----2----2----2------------------|
|-----------2-----------------0---------------------------------|
|-----------3-----------------2---------------------------------|
|-----------0-----------------3---------------------------------|
            C                 G/C  D

What have I done? What have I done?




|---2------3-3-3-----------------0-----0---2----3----2----------------------|
|---3------3-3-3-----------------1-----1---3----3----3----------------------|
|---2------0-2-0-----------------0-----0---2----2----2----------------------|
|----------2-2-0-------------0---2-----0------------------------------------|
|--------------2-------------0---3-----2------------------------------------|
|--------------3-------------2---0-----3------------------------------------|
    D   A7SUS4 G                 C     G/C D

    Oho,  oho, whoa,         oho,      oho,whoa



(Repeat for verse and chorus)

You know I, have surrendered, my hopes, my dreams
And all of these things, they are yours
Whatever they bring, they are yours

What have I done? What have I done?
What have I done? What have I done?
Oho, oho, whoa, oho, oho, whoa
Oho, oho, whoa, oho, oho, whoa.
Tap to rate this tab
 
# A B C D E F G H I J K L M N O P Q R S T U V W X Y Z