Song name
# A B C D E F G H I J K L M N O P Q R S T U V W X Y Z

Joshua Kadison - Beautiful In My Eyes tab

Beautiful in my eyes
by: Joshua Kadison

Tabbed by: Dk_lim0507

introduction 

     Fm7          Eb                
     E.  S S E  S S  E  S  S S E    
E||--------------------------------|
B||--------------------------------|
G||-------------1-0----------------|
D||--1-------1----1--3--1h-1-------|
A||--3---1-3------1----------3-1h--|
E||--1-----------------------------|


  Absus2 Absus2 Eb                           
  Q      S      S  S S E.  S  Q              
-----------------------------------|-------||
-----------------------------------|-------||
--1------1---------1-3-------------|-------||
--1------1------1------3---0h-0----|-------||
--1h-----1-------------3-----------|-------||
-----------------------------------|-------||




Duration Legend
---------------
W - whole
H - half
Q - quarter
E - 8th
S - 16th
T - 32nd
X - 64th
. - note dotted
|-n-|  - n-tuplets


Tablature Legend
----------------

h - hammer on
Tap to rate this tab
 
# A B C D E F G H I J K L M N O P Q R S T U V W X Y Z