Song name
# A B C D E F G H I J K L M N O P Q R S T U V W X Y Z

Joy Division - These Days tab

Joy Division - These Days

Tabbed by: Neil R. Rose (neil.damage.done@gmail.com)
Not 100%. Email me with corrections.

INTRO/VERSE
e|------------------------------------|
B|------------------------------------|
G|----------------------------7-7-7---|
D|---5-7-7-7-5-5-5------7-7-7---------|  X2
A|------------------5-5---------------|
E|------------------------------------|

RIFF 1 (Plays throughout song)
e|-----------------------------|------------------------------|
B|-----------------------------|------------------------------|
G|-----------------------------|------------------------------|
D|--12--10---------------------|--12--10----------------------| X2
A|----------12--10-------------|----------12--10--------------|
E|-----------------13--10----8-|------------------13--8-8/10--|

RIFF 2
e|-----------------------------------------------------|
B|-----------------------------------------------------|
G|--7-7-7--5--5--5--5---2~--2/-----5~-----2~------7~---|
D|--7-7-7--5--5--5--5---2~--2/-----5~-----2~------7~---|
A|--5-5-5--3--3--3--3---0----------3~-----0-------5~---|
E|-----------------------------------------------------|

CHORUS
e|---------------------------------------------------|
B|---------------------------------------------------|
G|---------------------------------------------------|  X2
D|-------------------9---7h-9------------------------|
A|--7--9-9-9-7-9-9-9----------7-9-9-9-7-9-9-9-7--7---|
E|-----------------------------------------------5---|

e|---------------------------------------|
B|---------------------------------------|
G|---------------------------------------|
D|-----------------9-9-7-----------------|
A|--7h9-7h9-7h9-7---------7h9-7h9-7--7---|
E|-----------------------------------5---|

SYNTH SOLO
e|-5---5----5-5-5--5/----12-12-12-10-10-10-10-10-10-10-10-10-10-10-10-10-|
B|-5---5----5-5-5--5/----------------------------------------------------|
G|-6---6----6-6-6--6-----------------------------------------------------|
D|-7---7----7-7-7--7-----------------------------------------------------|
A|-7---7----7-7-7--7-----------------------------------------------------|
E|-5---5----5-5-5--5-----------------------------------------------------|

INTRO
VERSE
VERSE
RIFF 2
CHORUS
VERSE
RIFF2
CHORUS
SYNTH SOLO
VERSE
RIFF 2
Tap to rate this tab
 
# A B C D E F G H I J K L M N O P Q R S T U V W X Y Z