Song name
# A B C D E F G H I J K L M N O P Q R S T U V W X Y Z

Joyce Manor - Comfortable Clothes tab

Standard Tuning

Guitar 1
[0:00]-[0:10]
|------------------------------------|
|------------------------------------|
|------------------------------------|
|------------------------------------|
|------------------------------------|
|--33333333222222227777777788888888--|
|
|x2

Guitar 2
Palm muted 
[0:00]-[0:10]
|-----------------------------------------|
|-----------------------------------------|
|---------------------77797---------------|
|--99999997-9999991010-----1099-99975555--|
|-----------------------------------------|
|-----------------------------------------|
|                     
|-----------------------------------------|
|-----------------------------------------|
|---------------------77797---------------|
|--99999997-9999991010-----1099-99975555--|
|-----------------------------------------|
|-----------------------------------------|
                      *<---Stop muting here

Guitar 1 & 2
[0:10]-[0:21]
|------------------------------------------------|
|------------------------------------------------|
|------------------------------------------------|
|--5-5-5555--9-9-9999--10-10-10101010--5-5-5555--|
|--5-5-5555--9-9-9999--10-10-10101010--5-5-5555--|
|--3-3-3333--7-7-7777--8--8--8-8-8-8---3-3-3333--|
|
|------------------------------------------------|
|------------------------------------------------|
|------------------------------------------------|
|--5~--------9~--------10101010-101010--7777-777-|
|--5~--------9~--------10101010-101010--7777-777-|
|--3~--------7~--------8-8-8-8--8-8-8---5555-555-|


Guitar 1
[0:21]-[0:31]
|------------------------------------|
|------------------------------------|
|------------------------------------|
|------------------------------------|
|------------------------------------|
|--33333333222222227777777788888888--|
|
|x2

Guitar 2
Palm muted 
[0:21]-[0:31]
|-----------------------------------------|
|-----------------------------------------|
|---------------------77797---------------|
|--99999997-9999991010-----1099-99975555--|
|-----------------------------------------|
|-----------------------------------------|
|                     
|-----------------------------------------|
|-----------------------------88888b------|
|---------------------77797---------------|
|--99999997-9999991010-----10-------------|
|-----------------------------------------|
|-----------------------------------------|
                      *<---Stop muting here


Guitar 1 & 2
[0:31]-[0:41]
|------------------------------------------------|
|------------------------------------------------|
|------------------------------------------------|
|--5-5-5555--9-9-9999--10-10-10101010--5-5-5555--|
|--5-5-5555--9-9-9999--10-10-10101010--5-5-5555--|
|--3-3-3333--7-7-7777--8--8--8-8-8-8---3-3-3333--|
|
|------------------------------------------------|
|------------------------------------------------|
|------------------------------------------------|
|--5~--------9~--------10101010-101010--7777-777-|
|--5~--------9~--------10101010-101010--7777-777-|
|--3~--------7~--------8-8-8-8--8-8-8---5555-555-|


Guitar 1
[0:41]-[0:52]
|------------------------------------|
|------------------------------------|
|------------------------------------|
|------------------------------------|
|------------------------------------|
|--33333333222222227777777788888888--|
|
|x2

Guitar 2
[0:47]-[0:52]
|-------------------------------------|
|-------------------------------------|
|--44--44-----------------------------|
|----55--554444444422222222-242020----|
|---------------------------------20--|
|-------------------------------------|

Guitar 1 & 2
[0:52]-[1:04]
|------------------------------------------|
|------------------------------------------|
|--4-4-4444--5-5-5555----------------------|
|--4-4-4444--5-5-5555--4/55-555--4/55-555--|
|--2-2-2222--3-3-3333--4/55-555--4/55-555--|
|----------------------2/33-333--2/33-333--|
|
|------------------------------------------|
|------------------------------------------|
|--4-4-4444--5-5-5555----------------------|
|--4-4-4444--5-5-5555--55555555------------|
|--2-2-2222--3-3-3333--55555555------------|
|----------------------33333333------------|
Tap to rate this tab
# A B C D E F G H I J K L M N O P Q R S T U V W X Y Z