Song name
# A B C D E F G H I J K L M N O P Q R S T U V W X Y Z

Joyce Manor - Derailed tab

I hate tabbing stuff, but a lot of people are asking me how to play this song, and
it's an amazing song, so I'm gonna do it.

Joyce Manor - Derailed
Key of A maj

Intro x 2 (palm mute the g string)

e|-----5-5-----5-5-----5-5-----5-5-|-------10-10-------10-10------10-10----10-10-|
b|-----5-5-----5-5-----5-5-----5-5-|-------10-10-------10-10------10-10----10-10-|
g|-6-6-----6-6-----6-6-----6-6-----|-11-11-------11-11-------11-11-----11-11-----|
d|---------------------------------|---------------------------------------------|
a|---------------------------------|---------------------------------------------|
e|---------------------------------|---------------------------------------------|

Verse is the same as the intro for one of the guitars. The other guitarist plays:
(all palm muted)

e|-----------------------------------|----------------------------------|
B|-----------------------------------|----------------------------------|
G|------------------7777777777777777-|-----------------7777777777777777-|
D|-7777777777777777-7777777777777777-|7777777777777777-7777777777777777-|
A|-7777777777777777-5555555555555555-|7777777777777777-5555555555555555-|
E|-5555555555555555------------------|5555555555555555------------------|

Chorus (When you ache through the days)
e|-------------------|------------------|-------------------|--------------------|
B|-------------------|------------------|-------------------|66666666-66666666---|
G|-------------------|------------------|-77777777-77777777-|77777777-77777777---|
D|-44444444-44444444-|22222222-22222222-|-77777777-77777777-|77777777-77777777---|
A|-44444444-44444444-|22222222-22222222-|-55555555 55555555-|55555555-55555555---|
E|-22222222-22222222-|00000000-00000000-|-------------------|--------------------|
                                         *

*Chorus riff

e|--------------------------|
B|--------------------------|
G|-777666442*----7776664*---|
D|--------------------------|
A|--------------------------|
E|--------------------------|

Post-chorus riff x 2

e|-----------------------5------------------------------|
B|--6-4--6-4----6-4--6-4----6-4--6-4--------------------|
G|-----------7-----------------------7-7/9-99-9/7-77----|
D|------------------------------------------------------|
A|------------------------------------------------------|
E|------------------------------------------------------|

Those are all the parts. Check out my acoustic version on youtube:
https://www.youtube.com/watch?v=MuANjy4o1_g
Tap to rate this tab
# A B C D E F G H I J K L M N O P Q R S T U V W X Y Z