Song name
# A B C D E F G H I J K L M N O P Q R S T U V W X Y Z

Jra - Handle With Care tab

You can watch his full acoustic version here:
http://www.youtube.com/watch?v=JeYO-2d3uUI

Capo 1st fret

|-------0^2------------0^2--------------------0------------------|
|-----2-----2-2------2-----2-2^0--------0^2------------0^2---2^0-|
|---2--------------2------------------1-----1--------1-----1-----|
|-0--------------0------------------2--------------2-------------|
|---------------------------------0--------------0---------------|
|----------------------------------------------------------------|


*With palm mute
|-2*----0*--|-0-|
|-2*----0*--|-0-|
|-2*----1*--|-1-|
|-0*----2*--|-2-|
|-------2*--|-2-|
|-------0*--|-0-|


|-2-0^2-2---2-0^2-2---0-0---0--0----0-|
|-2-2---2---2-2---2---2-0^2-2--2^0--0-|
|-2-2---2---2-2---2---1-1---1--1----1-|
|-0-0---0---0-0---0---2-2---2--2----2-|
|---------------------0-0---0--0----2-|
|-----------------------------------0-|


|-0-|
|-2-|
|-2-|
|-0-|
|---|
|---|



For any questions, please contact Asomeone50@gmail.com
Tap to rate this tab
 
# A B C D E F G H I J K L M N O P Q R S T U V W X Y Z