Guitaretab - guitar tabs
Song name
# A B C D E F G H I J K L M N O P Q R S T U V W X Y Z

Juan Dela Cruz Band - Wallys Blues tab

"Wally's Blues"-tabbed by Brian Ramos(elgago56@yahoo.com)
info: might be a bit faulty, but please bear with me. Enjoy!
it's not copyrighted cuz i only tabbed it by ear.
INTRO:

e]-1------------[
B]---2-1--------[
G]-------3------[
D]--------------[
A]--------------[
E]--------------[

Solo Start:

e]----------------------------------------------------------------------[
B]----------------------------------------------------------------------[
G]----9br-7-6h7p6-6h7p6------6h7--7h9--9(1/2)br-------------------------[
D]--x------------------9-7-9----9----9----------------------------------[
A]----------------------------------------------------------------------[
E]----------------------------------------------------------------------[

e]----------------------------------------------------------------------[
B]------10------------------------------------10------------------------[
G]----9b--9b-7-9---9-7-6-6h7p6-----6h7-7h9-9b---------------------------[
D]--x------------9------------9-7-9---9---9-----------------------------[
A]----------------------------------------------------------------------[
E]----------------------------------------------------------------------[

e]-----------------------------------------------10-9-9h10p9--9---------[
B]---7h8p7---5/7--10--------------------/8-10-12------------12----------[
G]--9-----9-7---9b--9b-7-9p7-7-9-7--------------------------------------[
D]--------------------------9------9------------------------------------[
A]-----------------------------------7----------------------------------[
E]----------------------------------------------------------------------[

e]----------------------------------------------------------------------[
B]--10-12-14-12b~---10-12-14-12b~---10-12-14-12b~-12br10-12-------------[
G]-------------------------------------------------------------9br7-9-7-[
D]----------------------------------------------------------------------[
A]----------------------------------------------------------------------[
E]----------------------------------------------------------------------[
part of the above:
e]-------------------------------------------------------------------------------------------------[
B]-----------------------------------------------------10-10-10---10b-10p7----10p7-----------------[
G]-6-----------------------6h7-6h7---6h7/9-7-9/11-9-11----------11---------9b-----9b-7h9p7---------[
D]---9-7---7/9-----7---7h9---------9-------------------------------------------------------9-------[
A]-------9-----7-9---9-----------------------------------------------------------------------------[
E]-------------------------------------------------------------------------------------------------[
part of the above:
e]---------------------------------------------------------------7h10p7----------10-12-12b~-12b~---[
B]------------------------------------10-------------7-10b-10p7--------10p7-10/12------------------[
G]----------------7h9p7-7h9p7-9/11-11----11b-7-9--7/9----------9-----------------------------------[
D]-7h9p7------7-9------9-----9------------------9--------------------------------------------------[
A]------9-7-9--------------------------------------------------------------------------------------[
E]-------------------------------------------------------------------------------------------------[
part of the above:
e]-12brp10h12-10-9-10-9h10p9--9-----------------------------------------[
B]--------------------------12-12-10h12p10--10-------------12-10--------[
G]----------------------------------------11--11\-9-7/11-11-----10br/12~[
D]----------------------------------------------------------------------[
A]----------------------------------------------------------------------[
E]----------------------------------------------------------------------[

e]-----------------------------------------------10-9~------------------[
B]---7h8p7---5/7--10--------------------/8-10-12------------------------[
G]--------9-7---9b--9b-7-9p7-7-9-7--------------------------------------[
D]--------------------------9------9------------------------------------[
A]-----------------------------------7----------------------------------[
E]----------------------------------------------------------------------[

e]----------------------------------------------------------------------[
B]--10-12-14-12b~---10-12-14-12b~---10-12-14-12b~-12br10-12-------------[
G]-------------------------------------------------------------9br7-9-7-[
D]----------------------------------------------------------------------[
A]----------------------------------------------------------------------[
E]----------------------------------------------------------------------[
[ Tab from: http://www.guitaretab.com/j/juan-dela-cruz-band/108549.html ]
e]----------------------------[
B]----------------------------[
G]-6-7-6h7p6-6----------------[
D]----------9--9-7-9p7-7------[
A]--------------------9--9----[
E]-------------------------7--[

e]-----------------------------------------------------------------------------------------------------[
B]------10------------------------------------------------------------------7--------------------------[
G]----9b--9b-7-9---9-7-9---7-6-7-6h7p6---6-6---6---6h7p6---6-6h7---6h7--7-9---9-7-9b~------------------[
D]--x------------9---------------------9-----9-----------9-------9----9--------------------------------[
A]-----------------------------------------------------------------------------------------------------[
E]-----------------------------------------------------------------------------------------------------[

e]-------------------------------------------------------------------------------[
B]-7-10-10b-10-------------------------------------7~--7-7b(1/2)-7-7b(1/2)-------[
G]-------------9b-7---6h7p6---6------------6h7-7/9-------------------------------[
D]--------------------------9---9-7-7--7/9---------------------------------------[
A]-------------------------------------------------------------------------------[
E]-------------------------------------------------------------------------------[

this is the feeling-filled part and maybe with the chorus effect:

e]-----------------------------------------------------------------------------------------------------[
B]-12-12-12\---14-14-14-14--15-15-15-15-17-17-17-17----------------------------------------------------[
G]-----------------------------------------------------------------------------------------------------[
D]-----------------------------------------------------------------------------------------------------[
A]-----------------------------------------------------------------------------------------------------[
E]-----------------------------------------------------------------------------------------------------[

e]-----------------------------------------------------------------------------------------------------[
B]-12-12-12\---14-14-14-14--15-15-15-15-17-17-17-17----------------------------------------------------[
G]-----------------------------------------------------------------------------------------------------[
D]-----------------------------------------------------------------------------------------------------[
A]-----------------------------------------------------------------------------------------------------[
E]-----------------------------------------------------------------------------------------------------[

and this one for about 27 times, this is still part of the above:

e]-----17p14-[
B]-17b-------[
G]-----------[
D]-----------[
A]-----------[
E]-----------[

and then:

e]--17b-17b~--17b-17b~---21b-21b~--21b-21b~------19b-19b-19b-19b-21b-21b-21b-21b-17b-17b----------------[
B]------------------------------------------------------------------------------------------------------[
G]------------------------------------------------------------------------------------------------------[
D]------------------------------------------------------------------------------------------------------[
A]------------------------------------------------------------------------------------------------------[
E]------------------------------------------------------------------------------------------------------[

still part of the above:

e]-17-15-14-17-15-14-17-15-14-17-15-14------------------------------------------------------------------------------------------[
B]-------------------------------------------17-------17-------17--17-15-14-17-15-14-17-15-14-------14-------14-------14--------[
G]-------------------------------------17-19----17-19----17-19--------------------------------15-17----15-17----15-17-----------[
D]------------------------------------------------------------------------------------------------------------------------------[
A]------------------------------------------------------------------------------------------------------------------------------[
E]------------------------------------------------------------------------------------------------------------------------------[

still part of the above:

e]-----------------------------------[
B]-15p14h15p14h15p14h15p14h15b-------[
G]-----------------------------------[
D]-----------------------------------[
A]-----------------------------------[
E]---------------------------------7-[

-END-

Legend:
x=mute
b=bend(2 frets higher)
r=release
/=slide up
\=slide down
h=hammer on
p=pull off
~=tremolo shake
b(1/2)=bend so that you only go higher 1 fret
Related for Wallys Blues tab
Wallys Blues chords by Juan Dela Cruz Band