Song name
# A B C D E F G H I J K L M N O P Q R S T U V W X Y Z

Juana - Ikaw Pa Rin chords

Highlighted       Show chord diagrams
add me sa FB

rebson_p@yahoo.com





IKAW PA RIN

by; JUANA


Without Capo: Family chords lng ng E
              basta dumadaan lng sa mga chords na to "E,B,C#m,A,F#m,G#m"
              intro;  E,C#m,G#m,A
              ref;    B, C#m
              chorus; E,B,C#m, G    
E,B,F#m, A
                      kung gus2 nyo mag change key bwelo lng sa C#
                       bagong chords ng chorus F#,C#,Ebm,B,F#,C#,G#m,B


note: hmp ang ang A/F#m maganda po sa plucking pero kung stums lng
      pwedeng   palitan F#m or DMaj parang parehas lng naman ang tono

Capo: 2nd Freet


      D                                Bm               F#m (A/F#m)
e---------------------------------------------------------------------------|
B----2/3-----3--3----2---------------3--3--2----------2---2---2-------------|
G----2-------2--2----2---------------4--4--4----------2---2---2-------------|
D----0-------0--0----0----0----------4--4--4--------------------------------|
A-------------------------------2--------------2----------------------------|
E--------------------------------------------------2--2---2---2----3--------|

            G/A                       D                           Bm
e---------------------------------------------------------------------------|
B--------3---5---3-------------2/3-----3--3----2---------------3--3--2------|
G--------2---2---3-------------2-------2--2----2---------------4--4--4------|
D------------------------------0-------0--0----0----0----------4--4--4------|
A---------------------------------------------------------2--------------2--|
E----3---3---3---3----------------------------------------------------------|

         F#m(A/F#m)       D/G    D     D/E   
Bm     A
e---------------------------3-----2-----0------------------|
B--------2--2-----2----------------------------3----2------|
G--------2--2-----2-------2-----2-----2-----2-------2------|
D----------------------------------------------------------|
A----------------------------------------------------------|
E----2---2--2-----2----------------------------------------|



      D                                Bm               F#m (A/F#m)
e---------------------------------------------------------------------------|
B----2/3-----3--3----2---------------3--3--2----------2---2---2-------------|
G----2-------2--2----2---------------4--4--4----------2---2---2-------------|
D----0-------0--0----0----0----------4--4--4--------------------------------|
A-------------------------------2--------------2----------------------------|
E--------------------------------------------------2--2---2---2----3--------|
   Nang    matapos   na’ng       mga araw na ika’y sa aking piling




            G/A                       D                           Bm
e---------------------------------------------------------------------------|
B--------3---5---3-------------2/3-----3--3----2---------------3--3--2------|
G--------2---2---3-------------2-------2--2----2---------------4--4--4------|
D------------------------------0-------0--0----0----0----------4--4--4------|
A---------------------------------------------------------2--------------2--|
E----3---3---3---3----------------------------------------------------------|
   iniibig ka pa rin           Nang maglaho  na            ang sikat ng buwan


                                                             at araw sa


         F#m(A/F#m)       D/G    D     D/E   
Bm     A
e---------------------------3-----2-----0------------------|
B--------2--2-----2----------------------------3----2------|
G--------2--2-----2-------2-----2-----2-----2-------2------|
D----------------------------------------------------------|
A----------------------------------------------------------|
E----2---2--2-----2----------------------------------------|
       tuwing magdamag    ikaw     pa      rin...


(REFRAIN)

A             Bm
Bakit nga ba ‘tong pusong nasugatan

   A                        G
Tila   nais paring maramdaman tamis ng yakap mo’t halik



(CHORUS)

 D              A                        Bm
Naaalala mo pa ba nung tayo’y magkasama pa

                   G                       D
Iyong sinabi’t pinangako na nalimot mo na siya

                  A                        Em
At kahit naglaho ka na muling sumama sa kanya


                  G
Sa aking puso ay ikaw pa rin, ikaw pa rin





 D                A                                Bm         G
Tuwing paggising sa umaga ang iyong mukha ang nais halikan at sambahin


D               Bm                F#m                        
G      A
Sa maghapon ay iniisip ka lamang at ang mga nakaraan na kay saya


(Refrain2)
A                   Bm
Bakit nga ba iyong puso’y sinugatan

   A                        G
Habang   pagsisisi ay hindi na kailanman mawawala


[Repeat Chorus]





ang lead po sa scale lng po ng E
x_x kakatamad i tab ng lead... kayo na po bahala dun
basta sa 12th freet ng No.2 string






dedicated to Sol =)

11:15pm
8/12/2011
Tap to rate this tab
 
# A B C D E F G H I J K L M N O P Q R S T U V W X Y Z