Guitaretab - guitar tabs
Song name
# A B C D E F G H I J K L M N O P Q R S T U V W X Y Z

Juanes - Nada Valgo Sin Tu Amor tab

----------------------------------------------------------------------------
	              NADA VALGO SIN TU AMOR - juanes
----------------------------------------------------------------------------
Tabbed by: <=<=<=E$=>=>=>
Email:tts_dalton@hotmail.com

Tuning: standard

bno est es el solo de esa cancion pirata q les gusta tanto, no puedo creer q los q han
puesto el solo lo hayan puesto mal, bueno este suena exactamente igual a como la toca
el wey ese, se merece un 5 y pu el q ponga 4. votenla... alguna doda o lo q sea me dicen
[ Tab from: http://www.guitaretab.com/j/juanes/53918.html ]
e|------------------------------------------------------------------------|
B|-10---------------------------5-----------------------------------------|
G|-----7/9-9-9-7------9-------5-------------------------------------------|
D|---------------10-9---9-7-5---------------------------------------------|
A|------------------------------------------------------------------------|
E|------------------------------------------------------------------------|

e|------------------------------------------------------------------------|
B|------------------------------------------------------------------------|
G|------------------------------------7-9-10-9h10p9-7~~~~-----------------|
D|-------5-7-9-10-9h10p9-7~------9-10-------------------------------------|
A|---7-8------------------------------------------------------------------|
E|------------------------------------------------------------------------|
Related for Nada Valgo Sin Tu Amor tab