Song name
# A B C D E F G H I J K L M N O P Q R S T U V W X Y Z

Judas Priest - Awakening tab

        Awakening                                     


           Judas Priest




      Em                                                  
      E  E  E  E  E  E  E  E     E  E  E  E  E  E  E  E   
E||---------------0-----------|--------------------------|
B||------------------0--------|--3--------1--------0-----|
G||*-----------0--------0-----|-----0--------0--------0--|
D||*--------2--------------2--|--------2--------2--------|
A||------2--------------------|--------------------------|
E||---0-----------------------|--------------------------|


  E  E  E  E  E  E  E  E     E  E  E  E  E  E  E  E   
--------------0-----------|--2--------3--------2-----|
-----------------0--------|-----0--------0--------0--|
-----------0--------0-----|--------0--------0--------|
--------2--------------2--|--------------------------|
-----2--------------------|--------------------------|
--0-----------------------|--------------------------|


  C                                                   
  E  E  E  E  E  E  E  E     E  E  E  E  E  E  E  E   
--------------0-----------|--------------------------|
-----------1-----1--------|--3--------1--------0-----|
--------0-----------0-----|-----0--------0--------0--|
-----2-----------------2--|--------2--------2--------|
--3-----------------------|--------------------------|
--------------------------|--------------------------|


  D                                          
  E  E  E  E  E   E  E  E     E  E  E  E     
-----------0--0h--2-----2--|---------------||
--------3------------3-----|---------------||
-----2---------------------|--------------*||
--0------------------------|--------------*||
---------------------------|-----3--2--3---||
---------------------------|---------------||




Duration Legend
---------------
W - whole
H - half
Q - quarter
E - 8th
S - 16th
T - 32nd
X - 64th
. - note dotted
|-n-|  - n-tuplets
Tap to rate this tab
# A B C D E F G H I J K L M N O P Q R S T U V W X Y Z