Song name
# A B C D E F G H I J K L M N O P Q R S T U V W X Y Z

Judas Priest - Exciter tab

-------------------------------------------------------------------------------
			     Exciter - Judas Priest
-------------------------------------------------------------------------------

Tabbed By : Nick Johnson


  Verse
G|------------------------|
D|-------------------7-5--|
A|------------------------|
E|-3-3-3-3-3-3-3-3--------|

  Chorus
G|----------------------|
D|------------------7-5-|
A|----------------------|
E|-0-0-0-0-0-0-0-0------|

  Solo
G|---------------------------------|
D|---------------------------------|
A|-2-2-2-2-2-2-2-2-2-2-2-2-0-0-1-1-|
E|---------------------------------|

  Post Solo
G|-------------------|
D|---0-1-2--0-2-3-4--|
A|-2-----------------| x2
E|-------------------|

  Outro
G|-------|      G|-----------------|
D|-------|      D|-----------------|
A|-------| x6   A|-----------------|
E|-3-5-6-|      E|-3-3-3-3-3-etc.--|           


===============================================================================
Tap to rate this tab
# A B C D E F G H I J K L M N O P Q R S T U V W X Y Z