Guitaretab - guitar tabs
Song name
# A B C D E F G H I J K L M N O P Q R S T U V W X Y Z

Judas Priest - Green Manalishi tab

Intro (main riff):

-Rhytm:
E |-----------------------------------------------------------|
H |-----------------------------------------------------------|
G |-----------------------------------------------------------|
D |-9-7-9--12-12-12-7-7-7--9-9-7-7-5-5--5-4-5-7-7-------------|
A |-7-5-7--10-10-10-5-5-5--7-7-5-5-3-3--3-2-3-5-5-------------|
E |-----------------------------------------------------------|

E |-----------------------------------------------------------|
H |-----------------------------------------------------------|
G |-----------------------------------------------------------|
D |-9-7-9--12-12-12-7-7-7--9-9-7-7-5-5--5-4-5-7-7-------------|
A |-7-5-7--10-10-10-5-5-5--7-7-5-5-3-3--3-2-3-5-5-------------|
E |-----------------------------------------------------------|


-Lead (only in the second part):
E |---------------------------15-12---------------------------|
H |------------------------12---------------------------------|
G |-9--11-12-14--12-11-9--------------------------------------|
D |-----------------------------------------------------------|
A |-----------------------------------------------------------|
E |-----------------------------------------------------------|


Verse x4:
[ Tab from: http://www.guitaretab.com/j/judas-priest/9515.html ]
-Guitar 1:
E |-----------------------------------------------------------|
H |----------------------------------------12-14-12--14-12----|
G |----------------------------------------12-14-12--14-12----|
D |-9-9-9-9-9-9-9-9-9-9-9-9-9-9-9-9-14--14-----------------14-|
A |-7-7-7-7-7-7-7-7-7-7-7-7-7-7-7-7---------------------------|
E |-0-0-0-0-0-0-0-0-0-0-0-0-0-0-0-0---------------------------|

-Guitar 2:
E |-----------------------------------------------------------|
H |-----------------------------------------------------------|
G |-----------------------------------------------------------|
D |-9-9-9-9-9-9-9-9-9-9-9-9-9-9-9-9-9--9-12-14-12--14-12-9----|
A |-7-7-7-7-7-7-7-7-7-7-7-7-7-7-7-7-7--7-10-12-10--12-10-7----|
E |-0-0-0-0-0-0-0-0-0-0-0-0-0-0-0-0---------------------------|


Bridge:
E |-----------------------|
H |-----------------------|
G |-----------------------|
D |---------5-4-----2-----|
A |-5--7--------2-5-------|
E |-3--5--0-----------3-2-|


Part C:
E |-------------------|--------------------|
H |-------------------|--------------------|
G |-------------------|--------------------|
D |-9-7-9--12----12-7-|-9-7-9--12----12-14-|
A |-7-5-7--10-10-10-5-|-7-5-7--10-10-10-12-|
E |-------------------|--------------------|
              xx                  xx

E |-------------------|--------------------|
H |-------------------|--------------------|
G |-------------------|--------------------|
D |-9-7-9--12----12-7-|-9-7-9--12----12-7--|
A |-7-5-7--10-10-10-5-|-7-5-7--10-10-10-5--|
E |-------------------|--------------------|
              xx                  xx

Intro x2
Verse x4
Bridge
Part C x4
Verse x4
Bridge
Part C x4
Drum Bridge
Main riff (+solos) x4
Verse x4
Bridge
Main riff x4

Ending:
E |-----------------------------------|
H |-----------------------------------|
G |-----------------------------------|
D |---5-4-----2-----------------5-4-2-|
A |-------2-5---2-5-3-2-------2-----2-|
E |-0-------------------0-2-3-------0-|
Related for Green Manalishi tab
×
Green Manalishi