Song name
# A B C D E F G H I J K L M N O P Q R S T U V W X Y Z

Jukebox The Ghost - Half Crazy tab

----------------------------------------------------------------------------
Half Crazy - Jukebox The Ghost
----------------------------------------------------------------------------
Tabbed by:Zach
Email:the_show_23@sbcglobal.net

Tuning:Standard

Intro/Verse
e|-------------------------------------------------------------------------|
B|--5-----7--8-------------------------------------------------------------|
G|--5-----7--9-------------------------------------------------------------|
D|--5-----7--9-------------------------------------------------------------|
A|--3-----5--7-------------------------------------------------------------|
E|-------------------------------------------------------------------------|
You can figure out the upstrokes and stuff, it's not too difficult.

Chorus
e|-------------------------------------------------------------------------|
B|-----8--3----------------------------------------------------------------|
G|-----9--4--7-------------------------------------------------------------|
D|--5--9--4--7-------------------------------------------------------------|
A|--5--7--2--5-------------------------------------------------------------|
E|--3----------------------------------------------------------------------|

Bridge
e|-------------------------------------------------------------------------|
B|--------8---------------------------------8------------------------------|
G|--------9---------------------------------9---------5-----7--7--5--7-7-7-|
D|-5----5-9---5-5-5-----------------------5-9---------5-----7--7--5--7-7-7-|
A|-5----5-7---5-5-5...-(a bunch of times)-5-7---------3-----5--5--3--5-5-5-|
E|-3----2-0---3-3-3-----------------------2-0------------------5-----------|

Basically I just wanted to give you guys a rough idea of how to play it.  There aren't 
many Jukebox The Ghost tabs, so I thought I'd add some. Its pretty simplistic.  I figured 
it out by watching a video of them playing it for some radio.  Great song.
Tap to rate this tab
 
# A B C D E F G H I J K L M N O P Q R S T U V W X Y Z