Song name
# A B C D E F G H I J K L M N O P Q R S T U V W X Y Z

Juliette And The Licks - I Never Got To Tell You What I Wanted To tab

we (drummer and a guitarrookie) think that sounds right!!!! 


E|-----------------|-----------------|-----------------|-----------------|
B|-3-3-3-3-3-3-3-3-|-2-2-2-2-2-2-2-2-|-0-0-0-0-0-0-0-0-|-0-0-0-0-0-0-0-2-|
G|-----------------|-----------------|-----------------|-----------------|
D|-----------------|-----------------|-----------------|-----------------|
A|-5-5-5-5-5-5-5-5-|-4-4-4-4-4-4-4-4-|-2-2-2-2-2-2-2-2-|-2-2-2-2-2-2-2-4-|
E|-----------------|-----------------|-----------------|-----------------|


E|-------------0---|-----------------|-----------------|-----------------|
B|-3-3-3-3-3-3---3-|-2-2-2-2-2-2-3-2-|-0-0-0-0-0-0-0-0-|-0-0-0-0-0-0-0-0-|
G|-----------------|-----------------|-----------------|-----------------|
D|-----------------|-----------------|-----------------|-----------------|
A|-5-5-5-5-5-5---5-|-4-4-4-4-4-4-4-4-|-2-2-2-2-2-2-2-2-|-2-2-2-2-2-2-2-2-|
E|-----------------|-----------------|-----------------|-----------------|


E|-------------|------------|-------------|-------------|
B|-7-7-7s10105-|-5-5s1010-0-|-0-0-0-3-2-0-|-0-0-0-0-0-0-|
G|-------------|------------|--------- ---|-------------| 
D|-5-5-5s7-7-4-|-4-4s7-7--2-|-2-2-2-2-2-2-|-2-2-2-2-2-2-|
E|-------------|------------|-------------|-------------|


E|-------------|------------|-------------|-------------|
B|-7-7-7s10105-|-5-5s1010-0-|-0-0-0-0-0-0-|-0-0-0-0-0-0-|
G|-------------|------------|--------- ---|-------------| 
D|-5-5-5s7-7-4-|-4-4s7-7--2-|-2-2-2-2-2-2-|-2-2-2-2-2-2-|
E|-------------|------------|-------------|-------------|


that tooks a lot of sweat and blood to find it out...
contact us if you think itīs totally wrong 
Tap to rate this tab
# A B C D E F G H I J K L M N O P Q R S T U V W X Y Z