Song name
# A B C D E F G H I J K L M N O P Q R S T U V W X Y Z

Junip - In Every Direction tab

TUNING

D A D F# B E

NOTE

The tuning used by Jose Gonzales is DADF#BE.
The same is used here in the tab.
The difference is he uses a capo in 3rd (not covering all strings :
not a toggle or strap on cap). So if you want to play exactly the same way
as him, you have to use a capo 3 covering all strings but bass E
(which stays open tuned in D)and you substract 3 to all numbers in the tab
except the number on string bass E.

it would give something like

(capo3)+ E = G ----------------------------------------|
(capo3)+ B = D ----------------------------------------|
(capo3)+ F#= A ----------------------------------------|
(capo3)+ D = F (0)--0-----3-5..-7-5_3-----3------------|
(capo3)+ A = C -0_2-2-3_5-5-3..-3-3---3_5-3-3...-------|
 N/A   + D > D -0---0-0---0-X---------0-----0..--------|

INTRO

----------------------------------------|
----------------------------------------|
----------------------------------------|
(3)--3-----3-5..-7-5_3-----3------------|
-3_5-5-3_5-5-3..-3-3---3_5-3-3...-------|
-0---0-0---0-X---------0-----0..--------|

VERSE 1 & 2

still protecting the magic feather
------------------------------|
--------------------6---------|
--5-----------------3---------|
--3-----------------5---------|
--5-----------------3---------|
--0-----------------x---------|

holding tight to a supporting crutch
-------------------------------|
--6----------------------------|
--3-----------------5----------|
--5-----------------3----------|
--3-----------------5----------|
--x-----------------0----------|

writing scripts on worn out leather
still waiting on a divine touch

try to ride on waves of activity
in every direction
you're the center and you're always free
in every direction

----------------------------------------|
----------------------------------------|
----------------------------------------|
(3)--3-----3-5..-7-5_3-----3------------|
-3_5-5-3_5-5-3..-3-3---3_5-3-3...-------|
-0---0-0---0-X---------0-----0..--------|


VERSE 3 & 4

feeling safe enough to abandon the void
ban the zero, ban the noise
quiet sounds picked up and dissected
all faint shadows reflected

try to ride on waves of activity
in every direction
you're the center and you're always free
in every direction

----------------------------------------|
----------------------------------------|
----------------------------------------|
(3)--3-----3-5..-7-5_3-----3------------|
-3_5-5-3_5-5-3..-3-3---3_5-3-3...-------|
-0---0-0---0-X---------0-----0..--------|

(4 times) + solo


VERSE 5 & 6

still protecting the magic feather
------------------------------|
--------------------6---------|
--5-----------------3---------|
--3-----------------5---------|
--5-----------------3---------|
--0-----------------x---------|

holding tight to a supporting crutch
-------------------------------|
--6----------------------------|
--3-----------------5----------|
--5-----------------3----------|
--3-----------------5----------|
--x-----------------0----------|

writing scripts on worn out leather
still waiting on a divine touch

try to ride on waves of activity
in every direction
you're the center and you're always free
in every direction

----------------------------------------|
----------------------------------------|
----------------------------------------|
(3)--3-----3-5..-7-5_3-----3------------|
-3_5-5-3_5-5-3..-3-3---3_5-3-3...-------|
-0---0-0---0-X---------0-----0..--------|


FINAL

and use the same chords some times to finish

------------------------------|
--------------------6---------|
--5-----------------3---------|
--3-----------------5---------|
--5-----------------3---------|
--0-----------------x---------|



by xavier parmantier
Tap to rate this tab
# A B C D E F G H I J K L M N O P Q R S T U V W X Y Z