Song name
# A B C D E F G H I J K L M N O P Q R S T U V W X Y Z

Junoon - Heer tab

complete tabs found on net so posted here
chck my cover

http://www.youtube.com/watch?v=NktD0newIog

HEER-JUNOON


Note: Play with heavy distortion and use the original song for timing info

E-------------------------------------------------------------|
B-------------------------------------------------------------|
G----5s7--7s9--5s4--------------------------------------------|
D-------------------------------------------------------------|
A-------------------------------------------------------------|
E-------------------------------------------------------------|

E-------------------------------------------------------------|
B-------------------------------------------------------------|
G-------2--4--11-----9s7--------------------------------------|
D----4--------------------------------------------------------|
A-------------------------------------------------------------|
E-------------------------------------------------------------|

E-------------------------------------------------------------|
B-------------12-13-15-13-12----------------------------------|
G----14-11-14----------------14-11-14-------------------------|
D-------------------------------------------------------------|
A-------------------------------------------------------------|
E-------------------------------------------------------------|
^^^^^^^^^^^^^^^^^^^^^^^^^^^^^^^^
Play quickly


E-------------------------------------------------------------|
B-------------------------------------------------------------|
G---14s16---12s11---------------------------------------------|
D-------------------------------------------------------------|
A-------------------------------------------------------------|
E-------------------------------------------------------------|

E-------------------------------------------------------------|
B----------13s12---------13s12---------13s12------------------|
G---11s12---------11s12---------11s12-------------------------|
D-------------------------------------------------------------|
A-------------------------------------------------------------|
E-------------------------------------------------------------|


E-------------------------------------------------------------|
B-------------------------------------------------------------|
G---11s12s11--9s7---------------------------------------------|
D-------------------------------------------------------------|
A-------------------------------------------------------------|
E-------------------------------------------------------------|


RIFF1
e--------------------------------------------------------------------|
B--------------------------------------------------------------------|
G-5h7-7-7----5-7s-12-11-8--------------------------------------------|
D-0----------0----0--0-----------------------------------------------|
A--------------------------------------------------------------------|
E--------------------------------------------------------------------|
RIFF2
e--------------------------------------------------------------------|
B--------------------------------------------------------------------|
G--5h7-7-7---5-4-2-4-5--8P-7-----------------------------------------|
D--0---------0---0-0-0-----------------------------------------------|
A--------------------------------------------------------------------|
E--------------------------------------------------------------------|
(REPEAT RIFF1 & THEN RIFF2 THRICE)

Then:
RIFF 3
e ------------------------------------------------------------------|
B ----------------7-----7-----7------7-----7-----7-----7-----7------|
G --5/7---7---7-----7-----7-----7------7-----7-----7-----7-----7----|
D --0---0---0---0-----0-----0------0-----0-----0-----0-----0-----0--|
A --0---------------------------------------------------------------|
E ------------------------------------------------------------------|


e -------------------------------------------------------------------|
B -7-----7-----8-----8-----8-----8-----8-----7---8---7---8--10---8---|
G ---7-----7-----7-----7-----7-----7-----7---------------------------|
D -----0-----0-----0-----0-----0-----0-----0---0---0---0---0---0---0-|
A -------------------------------------------------------------------|
E -------------------------------------------------------------------|

e ------------------------------------------------------------------|
B ----5-----7-----8-----7-----5-------------------------------------|
G --5-----5-----5-----5-----5---------------------------------------|
D ------0-----0-----0-----0-----0-----------------------------------|
A ------------------------------------------------------------------|
E ------------------------------------------------------------------|
Riff 4
e-------------------------------------------------------------------|
G-------------------------------------------------------------------|
D---9-7-9-7--------------BACK TO RIFF1&2----------------------------|
B---0-0-0-0--------------PLAY TWICE---------------------------------|
A-------------------------------------------------------------------|
E-------------------------------------------------------------------|

Then:
Riff 5

.e --10-8-7-------10-8-7------10-8-7----8-7--------------------------|
.B ---------10-7---------10-7--------10-----10--10-8-7---------------|
.G ----------------------------------------------------8-7-----------|
.D ------------------------------------------------------------------|
.A ------------------------------------------------------------------|
.E ------------------------------------------------------------------|

RIFF6
e--------------------------------------------------------------------|
G--------------------------------------------------------------------|
D-5h7-7-7-7h9-5-5h7-7-7-5--------------------------------------------|
B--0-------0------------0--------------------------------------------|
A--------------------------------------------------------------------|
E--------------------------------------------------------------------|

E ------------------------------------------------------------------|
B --------------------5---------------------7--7--7-----------------|
G --5h7---7---7---7-----7-5--5h7---7---7----7--7--7-----------------|
D --0---0---0---0---0--------0---0---0---0--0--0--0-----------------|
A --0------------------------0--------------------------------------|
E ------------------------------------------------------------------|



Just a few point:
1. The notes in brackets () are vibrato.
2. "v" means to bend DOWN b means to bend UP.
3. the numbers above the scales are the fingerings 1= 1st finger, 2= second
and so on.

e |---------------------------------------------------------|
B |---------------------------------------------------------|
G |9b(11)---9b11v9p7---11b(12)---12v11b12v11b12v11b12v11b12-|
D |---------------------------------------------------------|
A |---------------------------------------------------------|
E |---------------------------------------------------------|


e |-----------------------|
B |--10b12v(10)---7b8v(7)-|
G |-----------------------|
D |-----------------------|
A |-----------------------|
E |-----------------------|


------------------------------------------------------------------------------|
------------------------------------------------------------------------------|
---------9h11h12----------11h12h14----------12h14h16----------14h16h17--------|
-9h10h12---------11h12h14----------12h14h16----------14h16h17-----------------|
------------------------------------------------------------------------------|
------------------------------------------------------------------------------|


--------------------------------------------------------------------------17^-|
----------------------------------17--------------------------------17h19-----|
----------16h17h19-------16h17h19--------16h17h19p17p16----16h17h19-----------|
-16h17h19----------17h19--------------19----------------19--------------------|
------------------------------------------------------------------------------|
------------------------------------------------------------------------------|


e |17v15b17v15b(17)----17v15---14--(15)-----15p14---------15p14-----15p14------|
B |---------------------------------------------------7---------7------------7-|
G |----------------------------------------------------------------------------|
D |----------------------------------------------------------------------------|
A |----------------------------------------------------------------------------|
E |----------------------------------------------------------------------------|


e |--15p14--------15----------------------|
B |-----------7----------17----(15)-------|
G |---------------------------------------|
D |---------------------------------------|
A |---------------------------------------|
E |---------------------------------------|


e |----------------------------------------------------|
B |--------12p10--13p12p10--------12p10--13p12p10------|
G |--------------------------12---------------------12-|
D |----------------------------------------------------|
A |----------------------------------------------------|
E |----------------------------------------------------|


e |--------------------------------------------|
B |12p10--13p12p10-------12p10--13p12p10-------|
G |-------------------12--------------------12-|
D |--------------------------------------------|
A |--------------------------------------------|
E |--------------------------------------------|


e |------------|
B |10b(12)-----|
G |------------|
D |------------|
A |------------|
E |------------|


e |--------------------------|
B |------8p7--10--8p7--------|
G |------------------------9-|
D |--------------------------|
A |--------------------------|
E |--------------------------|


e |---------------------------------|
B |-------------8p7--10--8p7--------|
G |-------------------------------9-|
D |---------------------------------|
A |---------------------------------|
E |---------------------------------|


e |---------------------------|
B |------8p7--10--8p7---------|
G |-------------------------9-|
D |---------------------------|
A |---------------------------|
E |---------------------------|

e |---------------------------------------------------------------------------|
B |------8p7--10--8p7---------------------------------------------------------|
G |-------------------------9-(7)-----(5)--(4)--(2)---(7)-----(5)--(4)--(2)---|
D |---------------------------------------------------------------------------|
A |---------------------------------------------------------------------------|
E |---------------------------------------------------------------------------|


e |10--8--7----------10--8--7--------------------7-8--10--|
B |----------10--7-------------10--7----7--10--------------|
G |--------------------------------------------------------|
D |--------------------------------------------------------|
A |--------------------------------------------------------|
E |--------------------------------------------------------|


e |10--8--7----------10--8--7--------------------7-8--10--|
B |----------10--7-------------10--7----7--10--------------|
G |--------------------------------------------------------|
D |--------------------------------------------------------|
A |--------------------------------------------------------|
E |--------------------------------------------------------|

e |10--8--7---------10--8--7-----------------7-8--10-----------------|
B |----------10--7-----------10--7----7--10------------10-8-7-------|
G |-------------------------------------------------------------8-7--|
D |-------------------------------------------------------------------|
A |-------------------------------------------------------------------|
E |-------------------------------------------------------------------|


for comments contact me
darkenchanter3@gmail.com
Tap to rate this tab
# A B C D E F G H I J K L M N O P Q R S T U V W X Y Z