Song name
# A B C D E F G H I J K L M N O P Q R S T U V W X Y Z

Junoon - Hai Jazba Junoon tab

Help us improve GuitareTab! Take a short survey!
Standard Tuning

Intro:
Riff 1 is a combination of the following 2 chords. Listen carefully for 
the strumming pattern.

Riff 1
e|---0--0---------------------------------------------------------------------|
B|---1--3---------------------------------------------------------------------|
G|---2--2---------------------------------------------------------------------|
D|---2--2---------------------------------------------------------------------|
A|---x--x---------------------------------------------------------------------|
E|---x--x---------------------------------------------------------------------|

e|----------------------------------------------------------------------------|
B|--/5-3----------------------------------------------------------------------|
G|-------5-4---2-5-4---2-5-4---2-5-4---2---2----------------------------------|
D|---------------------------------------5------------------------------------|
A|----------------------------------------------------------------------------|
E|----------------------------------------------------------------------------|

e|----------------------------------------------------------------------------|
B|----------------------------------------------------------------------------|
G|--/9-7----------------------------------------------------------------------|
D|-------10-9--7-10-9---7-10-9---7-10-9---7----7------------------------------|
A|------------------------------------------10--------------------------------|
E|----------------------------------------------------------------------------|


Riff 1 is to be played wherever [Am] appears. Though [Am] could also be played,
but Riff 1 sounds better.

Hai J[Am]azba Junoon to himmat na haar
[Am] Justajoo jo karay woh chooaey aasmaan

[F] Mehnat apni h[C]o gee p[G]ehchaan kabhi na b[Am]holo
[F] Sab ki naz[C]ron main P[E]akistan
Kabhi na bh[Am]olo
P[G]akistan hai tum[Am]hara
P[G]akistan hai hu[Am]mara

[Am] Apna ghar apni sa[F]r zameen
[Am] Sab kuch hai b[F]as yeheen
[G] Itna to hai hum ko yaq[E]een

[Am] Barhna hai aagay ha[F]r qadam
[Am] Jab tak hai da[F]m main dam
[G] Ho gee kabhi himmat na ka[E]m
Related for Hai Jazba Junoon tab