Song name
# A B C D E F G H I J K L M N O P Q R S T U V W X Y Z

Junoon - Sayonee tab

I believe these are the correct tabs for intro.


INTRO:
================

play only UPSTROKES for each note...it sounds perfect.


----10-------10-------10-------10-------10-------10-------10-------10--|
-10----10-10----10-10----10-10----10-11----11-11----11-10----10-10-----|
-----------------------------------------------------------------------|
-----------------------------------------------------------------------|
-----------------------------------------------------------------------|
-----------------------------------------------------------------------|

-------13-------13-------9-------9----------10-----------------1-1-1-1--|
-10-10----10-10----10--8----8-8----8-------8-------8-----------3-3-3-3--|
-----------------------------------------10------9--9--7-7\2---2-2-2-2--|
---------------------------------------------------------------0-0-0-0--|
------------------------------------------------------------------------|
------------------------------------------------------------------------|
							       Dm 4 times


Note: Do the slide in the end softly. Its actually not in the song but it helps to play 
ending Dm chord easily.


The starting chords are Dm, Dsus2 and Dsus4. It sounds perfect. Please get the strumming 
yourself. Its quite easy.
The rest of the chords are correct in other tabs in UltimateGuitar. I hope u liked my post.


Enjoy! :)


- Fenil Dedhia (yahoo:live2dfullest_91)
Tap to rate this tab
 
# A B C D E F G H I J K L M N O P Q R S T U V W X Y Z