Song name
# A B C D E F G H I J K L M N O P Q R S T U V W X Y Z

Just Off Turner - How Much It Hurts tab

Pretty simple!

I looked at the only other tab for this song and it had
1 star... totally off, so I whipped one up real quick.

My first tab, comment if you would please!


|-----------------------------------------|
|----------7~-----------------7~----------|
|-------0~-----0~-----------0~-----0~-----|
|----7~-----------7~-----7~-----------7~--|
|-5~-----------------5~-------------------|
|-----------------------------------------|


|-----------------------------------------|
|----------7~-----------------7~----------|
|-------0~-----0~-----------0~-----0~-----|
|----7~-----------7~-----7~-----------7~--|
|-----------------------------------------|
|-5~-----------------5~-------------------|


|-----------------------------------------|
|----------7~-----------------7~----------|
|-------0~-----0~-----------0~-----0~-----|
|----7~-----------7~-----7~-----------7~--|
|-----------------------------------------|
|-7~-----------------7~-------------------|


|-----------------------------------------|
|----------7~--------5~-------------------|
|-------0~-----0~-------------------------|
|----7~-----------7~----------------------|
|-----------------------------------------|
|-5~--------------------------------------|

Tap to rate this tab
# A B C D E F G H I J K L M N O P Q R S T U V W X Y Z