Song name
# A B C D E F G H I J K L M N O P Q R S T U V W X Y Z

Justin Bieber - Where Are You Now tab

-------------------------------------------------------------------------------
		     WHERE ARE YOU NOW - Justin Bieber
-------------------------------------------------------------------------------
Tabbed by: Emma Kidston (Supermaassive_)

Tuning: Standard
Capo: None

#INTRO#
                              *******
e|------------------------------------------------|
B|--------0---0-1------3--1-0-------0-0---0-1-0---| ** = I'm still working on
G|------2----2----------------0---0-----2-------2-|      this part of the song.
D|----2--------------3----------0-----------------|      Feel free to send me
A|--0--------------3------------------------------|      suggestions...
E|---------------1--------------------------------|

I'm still actually working on this tab ... so bear with me! Here's the intro for 
you guys to work on 'till I update the tab so keep checking! Thanks.

===============================================================================
Tap to rate this tab
# A B C D E F G H I J K L M N O P Q R S T U V W X Y Z