Song name
# A B C D E F G H I J K L M N O P Q R S T U V W X Y Z

Justin Nozuka - Lullabye tab

-------------------------------------------------------------------------------
			     Lullabye - Justin Nozuka
-------------------------------------------------------------------------------

Hello, my name is Cody. This is my first tab. And this is such a great yet
relatively unknown song by Justin Nozuka. Who is an amazing artist by the
way. Hope you enjoy. 


Tabbed by: steck388
Email: csteckman_3@hotmail.com

Tuning: standard

Intro:
"20 miles to fast..."
e|-5---------5-----------0--------0------------------------------------------|
B|----6----------6----------1--------1--------3--------3----------1-----1----|
G|------5----------5----------2--------2---------0--------0---------0-----0--|
D|-------------------7-------------------2---------0--------0--------2-----2-|
A|-5---------5-----------0--------0---------------------------2---3-----3----|
E|--------------------------------------------3--------3---------------------|

Verse:
"the sun wakes up..."
e|---------------------------------------------------------------------------|
B|---------1----------1-----------3--------------1---------------------------|
G|---------0----------2-----------0--------------0---------------------------|
D|-------2----------2-----------0-------------2------------------------------|
A|--0--3------3--0--------0-------------0--3---------------------------------|
E|---------------------------3-----------------------------------------------|
 repeat this until...

Chorus: this part is played exactly like the intro
"2001 to 2005..."
e|-5---------5-----------0--------0------------------------------------------|
B|----6----------6----------1--------1--------3--------3----------1-----1----|
G|------5----------5----------2--------2---------0--------0---------0-----0--|
D|-------------------7-------------------2---------0--------0--------2-----2-|
A|-5---------5-----------0--------0---------------------------2---3-----3----|
E|--------------------------------------------3--------3---------------------|
 play this 2 times, but on the second time, dont play the last C chord just
let the G ring and go straight into this which are the same chords as the
verse.

"lullabye..."
e|---------------------------------------------------------------------------|
B|---------1----------1-----------3--------------1---------------------------|
G|---------0----------2-----------0--------------0---------------------------|
D|-------2----------2-----------0-------------2------------------------------|
A|--0--3------3--0--------0-------------0--3---------------------------------|
E|---------------------------3-----------------------------------------------|
play this twice as well. and after that play this which is the same chord 
progression as the intro. 

e|-5------0------------------------------------------------------------------|
B|---6-------1--------3----------1-------------------------------------------|
G|----5--------2---------0---------------------------------------------------|
D|---------------2---------0-------------------------------------------------|
A|-5------0----------------------3-------------------------------------------|
E|--------------------3------------------------------------------------------|
play this twice as well, and then just go back to the verse.

Bridge:
"fly us back to the past..."
e|-5---------5-----------0--------0------------------------------------------|
B|----6----------6----------1--------1--------3--------3----------1-----1----|
G|------5----------5----------2--------2---------0--------0---------0-----0--|
D|-------------------7-------------------2---------0--------0--------2-----2-|
A|-5---------5-----------0--------0---------------------------2---3-----3----|
E|--------------------------------------------3--------3---------------------|
this is just the intro again. play it twice.

"She reaches for her baby..."
e|---------------------------------------------------------------------------|
B|---------1----------1-----------3--------------1---------------------------|
G|---------0----------2-----------0--------------0---------------------------|
D|-------2----------2-----------0-------------2------------------------------|
A|--0--3------3--0--------0-------------0--3---------------------------------|
E|---------------------------3-----------------------------------------------|
and this is just the verse chords again. played the same.


and thats pretty much it, hope it is accurate enough for your liking!



| /  slide up
| \  slide down
| h  hammer-on
| p  pull-off
| ~  vibrato
| +  harmonic
| x  Mute note
===============================================================================
Tap to rate this tab
# A B C D E F G H I J K L M N O P Q R S T U V W X Y Z