Justin Taylor - One Track Mind tab

One Track Mind - Justin Taylor

h  - hammer on
p  - pull off
() - ghost note
/\ - slide up or down
x  - mute and hit string

This is based on the youtube video from CandyRat so discrepancies with the studio 
version may exist.
There are some places where I only put one instance of a chord for brevity's sake (i.e. bridge).
Listen to the song to get the rhythm/strumming/patterns down.
It's a fingerstyle song so using a pick will make it very difficult.
Watch the video to see how he does it or do what works for you!
I have included lyrics in some places to clear up confusion about where things are in 
the song.
Please, if you have any questions or found something you disagree with, email me 
at mjw1989@yahoo.com



Tuning DADGAD flat (C# G# C# F# G# C#) (AKA C#sus4 tuning)

Intro

C#|-0-0---------0-0-------0--0-0---0-0-0-----0-------|
G#|-0-0-----------0-------0--0-0---0-0---------------|
F#|-2-2------2----2-------2--0-0---0-2---------------|
C#|-0-0--2h4------0-------0--2-2---2-0---2/4---4\2p0-|
G#|-0------------------------0-0-0-------------------|
C#|-0---------------0h2h4----------------------------|


C#|-0-0---------0-0-------0--0-0---0-0------(7)--------|
G#|-0-0-----------0-------0--0-0---0-0------(7)--------|
F#|-2-2------2----2-------2--0-0---0-2------(7)--------|
C#|-0-0--2h4------0-------0--2-2---2-0------(7)--------|
G#|-0------------------------0-0-0-------x--(7)--------|
C#|-0---------------0h2h4----------------x--(7)--------|


Verse
        "The living room"       "With you and me"
C#|-0-0---------0-0-------0--0-0---0-0-0-----0-------|
G#|-0-0-----------0-------0--0-0---0-0---------------|
F#|-2-2------2----2-------2--0-0---0-2---------------|
C#|-0-0--2h4------0-------0--2-2---2-0---2/4---4\2p0-|
G#|-0------------------------0-0-0-------------------|
C#|-0---------------0h2h4----------------------------|

         "We're not alone"      "We're family"
C#|-0-0---------0-0-------0--0-0---0-0-0-0-------|
G#|-0-0-----------0-------0--0-0---0-0-0-0-------|
F#|-2-2------2----2-------2--0-0---0-2-2-2-------|
C#|-0-0--2h4------0-------0--2-2---2-0-0-0-------|
G#|-0------------------------0-0-0---------------|
C#|-0---------------0h2h4------------------------|


He just kind of strums these chords. Watch the video for the pattern.

    "Probably...." "you know as well as me..."
C#|-0--0--0--0------0--0--0--0--|
G#|-0--4--5--0------3--2--0--0--|
F#|-7--2--4--6------0--0--0--0--|
C#|-0--0--0--0------0--0--3--5--|
G#|-9--0--0--0------3--2--1--3--|
C#|-0--4--5--7------------0--0--|

Go through the intro and verse (different lyrics) again, then this:

C#|-0-0---------0-0-0-0--0-0--|
G#|-0-0-----------0-0-0--0-0--|
F#|-2-2------2----0-0-0--0-0--|
C#|-0-0--2h4------2-2-2--2-2--|
G#|-0-------------0-0-0--0-0--|
C#|-0-------------------------|


Chorus
Again just the chords.  Watch/listen for pattern.

C#|--0--0--0--0-----|
G#|--0--4--5--0-----|
F#|--2--2--4--6-----|
C#|--0--0--0--0-----|
G#|--0--0--0--0-----|
C#|--0--4--5--7-----|

Back to intro with a little twist at the end:

C#|-0-0---------0-0-------0--0-0---0-0-0-----0-------|
G#|-0-0-----------0-------0--0-0---0-0---------------|
F#|-2-2------2----2-------2--0-0---0-2---------------|
C#|-0-0--2h4------0-------0--2-2---2-0---2/4---4\2p0-|
G#|-0------------------------0-0-0-------------------|
C#|-0---------------0h2h4----------------------------|


C#|-0-0---------0-0-------0--0-0-0-----0----(7)---|
G#|-0-0-----------0-------0--3-3-3\2p0-0----(7)---|
F#|-2-2------2----2-------2--0-0-0-0-0-2----(7)---|
C#|-0-0--2h4------0-------0--0-0-0-0-0-0----(7)---|
G#|-0------------------------3-3-3\2p0----x-(7)---|
C#|-0---------------0h2h4-----------------x-(7)---|

Do another verse but with a stop:

           "...stop"
C#|-0-0---------x-x---------0--0-0---0-0-0-----0-------|
G#|-0-0---------x-x---------0--0-0---0-0---------------|
F#|-2-2------2--x-x---------2--0-0---0-2---------------|
C#|-0-0--2h4----x-x---------0--2-2---2-0---2/4---4\2p0-|
G#|-0-----------x-x------------0-0-0-------------------|
C#|-0-----------x-x---0h2h4----------------------------|

      "did they say..."         "I can't be sure"
C#|-0-0---------0-0-------0--0-0---0-0-0-0-------|
G#|-0-0-----------0-------0--0-0---0-0-0-0-------|
F#|-2-2------2----2-------2--0-0---0-2-2-2-------|
C#|-0-0--2h4------0-------0--2-2---2-0-0-0-------|
G#|-0------------------------0-0-0---------------|
C#|-0---------------0h2h4------------------------|

    "probably..."  "'cuz I have no clue..."
C#|-0--0--0--0------0--0--0--0--|
G#|-0--4--5--0------3--2--0--0--|
F#|-7--2--4--6------0--0--0--0--|
C#|-0--0--0--0------0--0--3--5--|
G#|-9--0--0--0------3--2--1--3--|
C#|-0--4--5--7------------0--0--|


C#|-0-0---------0-0-0-0--0-0--|
G#|-0-0-----------0-0-0--0-0--|
F#|-2-2------2----0-0-0--0-0--|
C#|-0-0--2h4------2-2-2--2-2--|
G#|-0-------------0-0-0--0-0--|
C#|-0-------------------------|

One more chorus, then:

Bridge:
chords for the first part, you know the drill
   "Another room..."
C#|-0--0-|------------------------0----0-0------|
G#|-3--2-|------------------------0----0-0------|
F#|-0--0-|-------11-------9-------7\6--4-6\4p0--|
C#|-0--0-|------------------------0----0-0------|
G#|-3--2-|----12-------10------9--9\7--5-7\5p0--|
C#|------|--0--------0-------0----0----0-0------|

   "Let's say we..."
C#|-0--0-|--0--0-------0-0--------0--|
G#|-3--2-|--0--0---------0--------0--|
F#|-0--0-|--2--2-----2---2--------2--|
C#|-0--0-|--0--0-2h4-----0--------0--|
G#|-3--2-|--0------------------------|
C#|------|--0---------------0h2h4----|

   "Say you've got to..."
C#|-0--0-|------------------------0----0-0------|
G#|-3--2-|------------------------0----0-0------|
F#|-0--0-|-------11-------9-------7\6--4-6\4p0--|
C#|-0--0-|------------------------0----0-0------|
G#|-3--2-|----12-------10------9--9\7--5-7\5p0--|
C#|------|--0--------0-------0----0----0-0------|

   "Be back in a second..."              "But for now"
C#|-0--0--0--|-0-0------0-0--------0----0---0----|
G#|-3--2--0--|-0-0--------0--------0----5---0----|
F#|-0--0--0--|-2-2----2---2--------2/4--4---6----|
C#|-0--0--2--|-0-0-2h4----0--------0----0---0----|
G#|-3--2--0--|-0------------------------0---0----|
C#|----------|-0------------0h2h4-------5---7----|

Repeat the second part of that last section then a chorus.
End on the open D chord (very first one of the song).
It looks scary at first but it really fits together pretty nicely.
Good luck and God Bless!
Tap to rate this tab
 
# A B C D E F G H I J K L M N O P Q R S T U V W X Y Z