Song name
# A B C D E F G H I J K L M N O P Q R S T U V W X Y Z

Justin Timberlake - What Comes Around tab

E-5-3-5-0-h1-p0------{3x}------5-3-5-5-3-5-----------------------|
B----------------3-----------------------------------------------|
G----------------------------------------------------------------|
D----------------------------------------------------------------|
A----------------------------------------------------------------|
D----------------------------------------------------------------|

Lots of different ways to play this but this is how I do it...
E-------------------1-------------------2-h3-p2-----------------------|
B--------1--------3-----------8-------3---------3---------------------|
G------2--------2-----------7---7---2-------------2-------------------|
D----2--------X-----------5-------------------------------------------|
A--0--------3-----------5---------------------------------------------|
D---------------------5-----------------------------------------------|
Tap to rate this tab
# A B C D E F G H I J K L M N O P Q R S T U V W X Y Z