Song name
# A B C D E F G H I J K L M N O P Q R S T U V W X Y Z

Kaiser Chiefs - Loves Not A Competition But Im Winning tab

Standard tuning

e|-15-15----------------------------------|
B|-------13-13-15-15----------------------|
G|-------------------12--12--12-12-12-----|
D|----------------------------------------|
A|----------------------------------------|
E|----------------------------------------|

e|-15-15----------------------------------|
B|-------13-13-15-15-13--13--13-13-13-----|
G|----------------------------------------|
D|----------------------------------------|
A|----------------------------------------|
E|----------------------------------------|

This is played twice for the intro and 
again later on in the song until the
end.
Tap to rate this tab
 
# A B C D E F G H I J K L M N O P Q R S T U V W X Y Z