Song name
# A B C D E F G H I J K L M N O P Q R S T U V W X Y Z

Kamikazee - Unang Tikim tab

                                                                             
    Name: Unang Tikim                                                        
    By: Kamikazee                                                            
    Tabbed by: Lenard B. Dichoson                                            
    E-mail: dichoson.lx@gmail.com or dichosonlxp@yahoo.com                   
                                                                             
_____________________________________________________________________________
                                                                             
                        !!!Please rate this TAB..XD !!!                      
    This tab is easy and sounds great on both acoustic or electric guitar    
                                                                             
                              Tuning:  Drop D                                
                                                                             
    Intro (a):  Repeat 2x
   
    e|-------------------------------|-|-----------------------------------------|
    B|-------------------------------|-|-----3---3s5po3------3---3s5~------------|
    G|--5-5-7-5-7s9-7-5~--5-7-5-7s9~-|o|-5-5---5--------5~-5---5-----------------|
    D|-------------------------------|r|-----------------------------------------|
    A|-------------------------------|-|-----------------------------------------|
    E|-------------------------------|-|-----------------------------------------|
   
    Intro (b):
                        Part I                                  Part II
    e|-------------------------------------------------|-------------------------|
    B|-------------------------------------------------|-------------------------| 
    G|-------------------------------------------------|-------------------------|
    D|-5~--3-3-3-3-3--5-5-5-5-5--3-3-3-3-3--5-5-5-5-5--|-5-5xx--3-3xx------------|
    A|-3~--3-3-3-3-3--3-3-3-3-5--3-3-3-3-3--3-3-3-3-3--|-5-5xx--3-3xx------------|
    E|-----3-3-3-3-3-------------3-3-3-3-3-------------|-5-5xx--3-3xx------------|
   
     >>> Picking pattern ( Part I ): down down up down up ... just repeat
                        ( Part II ): down up
   
    Verse: 
    e|------------------------------|r  |----------------------------------------|
    B|------------------------------|e  |----------------------------------------|
    G|------------------------------|p 2|----------------------------------------|
    D|-5-5*-5*-5*-5*--3-3*-3*-3*-3*-|e X|--5-5-5-5-5--3-3-3-3-3------------------|
    A|-3-3*-3*-3*-3*--3-3*-3*-3*-3*-|a  |--3-3-3-3-3--3-3-3-3-3------------------|
    E|----------------3-3*-3*-3*-3*-|t  |-------------3-3-3-3-3------------------|
   
    Refrain:
    e|--------------------------|r  |--------------------------------------------|
    B|--------------------------|e  |--------------------------------------------|
    G|--------------------------|p 2|--------------------------------------------|
    D|-7-7-7--5-5-5--3-3-3-3-3--|e X|---5--3--5~---------------------------------|
    A|-7-7-7--5-5-5--3-3-3-3-3--|a  |---5--3--3~---------------------------------|
    E|-7-7-7--5-5-5--3-3-3-3-3--|t  |---5--3-------------------------------------|
   
    Chorus:
    e|---------------------------------------------------------------------------|
    B|---------------------------------------------------------------------------|
    G|---------------------------------------------------------------------------|
    D|-3-3-3-3-3--7-7--5-5--3-3-3--5-5-5-5-5--3-3-3-3-3--7-7--5-5--3~--5x--------|
    A|-3-3-3-3-3--7-7--5-5--3-3-3--3-3-3-3-3--3-3-3-3-3--7-7--5-5--3~--5x--------|
    E|-3-3-3-3-3--7-7--5-5--3-3-3-------------3-3-3-3-3--7-7--5-5--3~--5x--------|
   
   
    Repeat Intro (a) once , then proceed to Intro (b)...
    Repeat Verse
    Repeat Refrain
    Repeat Chorus
   
   
   
    Adlib:
    e|-----------------------------|r  |-------------------------------------------|
    B|-----------------------------|e  |-------------------------------------------|
    G|-----------------------------|p 4|-------------------------------------------|
    D|-4s5-5---5-5--3-3-3--5po3--0-|e X|--5-5--3-3--5~-----------------------------|
    A|-2s3-3---3-3--3-3-3--5po3--0-|a  |--5-5--3-3--3~-----------------------------|
    E|--------------3-3-3--5po3--0-|t  |--5-5--3-3---------------------------------|
   
    Bridge (?):
    e|---------------------|-----------------------------------|-------------------|
    B|---------------------|-just repeat until the distortion--|---[repeat until]--|
    G|---0-0-0-0--0-0-0-0--|-----------------------------------|---[chorus starts]-|
    D|---------------------|-----------------------------------|-4s5---------------|
    A|--3-3-3-3------------|-----------------------------------|-2s3---------------|
    E|-----------3-3-3-3---|-----------------------------------|-------------------|
   
    Repeat: Chorus: Same ,just full step to higher up the tune
         ***Full step - move chords 2 frets to the right ( For beginners...)
   
    Repeat: Intro (a) & (b) <<< Full step also
   
    End:
    e|-----------------------------------------------------------------------|
    B|-----------------------------------------------------------------------|
    G|-----------------------------------------------------------------------|
    D|--5-5-5x-5-5-5x---5-5x--5-5x---7~--------------------------------------|
    A|--5-5-5x-5-5-5x---5-5x--5-5x---5~--------------------------------------|
    E|--5-5-5x-5-5-5x---5-5x--5-5x--------5s12~------------------------------|
    
    Note:
    ~ - let ring
    S  slide
    Po  pull out
    X  full stop
    * - Palm mute
                    !!!!!!Kung may mali comment n lng...:DD!!!!!!!!!
Tap to rate this tab
# A B C D E F G H I J K L M N O P Q R S T U V W X Y Z