Song name
# A B C D E F G H I J K L M N O P Q R S T U V W X Y Z

Kamikazee - Unang Tikim tab

Song:Unang Tikim
Album:Long Time Noisy
Artist:Kamikazee
Guitar Tabber:Ryan Manongdo/19/Vancouver,Ca
             rhyezkie@gmail.com(gtalk)
             no_falter0x@yahoo.com(YM,friendster,facebook&myspace)

For your any comments, questions, or suggestions, just post a comment, pm or mail me.

P.S.

Sorry guys, I don't have a lyrics for this song yet=(


Please visit my band profile as well=)

http://artists.ultimate-guitar.com/renovationunder/

Gtr.Legends:
/ - slide
~ - let it ring
x - dead string or scratching
. - palm muting

Gtr.Tuning:Standard(Normal)

Intro:
Gtr.2
e|-----------------------------            ----------|
B|-----------------------------            -55--55---|
G|-55-7-5-7-9-7--5-7-5-7/9-5--- Repeat     -55--55---|
D|----------------------------- Many Times ----------|
A|----------------------------- Then       ----------|
E|-----------------------------            ----------|

Gtr.1 Enters
e|--------------------------------------------|
B|--------------------------------------------|
G|------5~----------555555--------------------|
D|-5-3--5~---333333-555555-3333333---55--33---|
A|-5-3--3~---333333-333333-3333333---55--33---|
E|-3-1-------111111--------1111111---33--11---|
                                     ..  ..

Verse 1:
e|--------------------------------------------|
B|--------------------------------------------|
G|-55555---------55555---------55555----------|
D|-55555-333333--55555-333333--55555-333333---|
A|-33333-333333--33333-333333--33333-333333---|
E|-------111111--------111111--------111111---|
   ..... ......  ..... ......

Pre-Chorus:
e|-------------------------------------------------------------|
B|-------------------------------------------------------------|
G|-------------55-----------------------------------------5~---|
D|-77----55----55----333333---77----55----33333--5---5-3--5~---|
A|-77-xx-55-xx-33-xx-333333---77-xx-55-xx-33333--5---5-3--3~---|
E|-55-xx-33-xx----xx-111111---55-xx-33-xx-11111--3---3-1-------|
                                                 .

Chorus:
e|----------------------------------------------------------------------------|
B|----------------------------------------------------------------------------|
G|------------------------------------------55555-----------------------------|
D|-333333--7-7-7-7--5-5-5-5--333333--5555---55555-33333--77----55----3~---5---|
A|-333333--7-7-7-7--5-5-5-5--333333--5555---33333-33333--77-xx-55-xx-3~---5---|
E|-111111--5-5-5-5--3-3-3-3--111111--3333---------11111--55-xx-33-xx-1~---3---|
           . . . .  . . . .          xxxx                                 .
             

Pre-Verse 2:
Gtr.2
e|----------------------------            ----------|
B|----------------------------            -55--55---|
G|-55-7-5-7-9-7--5-7-5-7/9---- Repeat     -55--55---|
D|---------------------------- Many Times ----------|
A|---------------------------- Then       ----------|
E|----------------------------            ----------|

Gtr.1
e|----------------------------------|
B|----------------------------------|
G|--------555555--------------------|
D|-333333-555555-3333333---55--33---|
A|-333333-333333-3333333---55--33---|
E|-111111--------1111111---33--11---|

Verse 2:
Gtr.1:Play Verse 1

Gtr.2:
e|-----------------------------------------------------------------|
B|-----------------------------------------------------------------|
G|---------------------------55-----55----5------------------------|
D|-----55------55----5---333----333----33--------55------55----5---|
A|-333----3333----33-------------------------333----3333----33-----|
E|-----------------------------------------------------------------|

Repeat Pre-Chorus:

Repeat Chorus:

Bridge prt.1(Instrumentals)
Gtr.1
e|----------------------------------      
B|----------------------------------     
G|-4-55--55-----------4-55--55------ 
D|-4-55--55-333---5-3-4-55--55-333-- 
A|-2-33--33-333---5-3-2-33--33-333--    
E|----------111---3-1----------111--  

e|-----------------------------------------------------------------------------------------------|
B|-----------------------------------------------------------------------------------------------|
G|-4-55--5-5-5-5-5-5-55-----------------------4-55--5-5-5-5-5-5-5-55------------------------5~---|
D|-4-55--5-5-5-5-5-5-55-333--3-3-3-3-3-3--5-3-4-55--5-5-5-5-5-5-5-55-333--3-3-3-3--55--33---5~---|
A|-2-33--3-3-3-3-3-3-33-333--3-3-3-3-3-3--5-3-2-33--3-3-3-3-3-3-3-33-333--3-3-3-3--55--33---3~---|
E|----------------------111--1-1-1-1-1-1--3-1------------------------111--1-1-1-1--33--11--------|
         . . . . . .         . . . . . .            . . . . . . .         . . . .

Gtr.2 Enters:
e|-------------------------------------------------------|
B|-------------------------------------------------------|
G|-5-5-5-5-5-5-5-5-5-5-5-5-5-5-10-9-7-5--5-5-5-5-5-5-5---|
D|-x-x-x-x-x-x-x-x-x-x-x-x-x-x--x-x-x-x--x-x-x-x-x-x-x---|
A|-3-3-3-3-3-3-3-3-3-3-3-3-3-3--8-7-5-3--3-3-3-3-3-3-3---|
E|-------------------------------------------------------|
   . . . . . . . . . . . . . .           . . . . . . .

Bridge prt.2
Gtr.1
e|--------------------------------------------------------------------------      -------------|
B|--------------------------------------------------------------------------      -------------|
G|---0---0---0---0-----0---0---0---0-----0---0---0---0-----0---0-----0---0-- 2x   -------------|
D|-------------------------------------------------------------------------- Then -3~--xxxxx---|
A|-3---3---3---3-----------------------3---3---3---3------------------------      -3~--xxxxx---|
E|-------------------1---1---1---1-----------------------5---5-----3---3----      -1~--xxxxx---|

Gtr.2 Enters:
e|------------------------------------------------------|
B|-2/8~----8~----8~---8~---8~---8~---8~-----------------|
G|------------------------------------------------------|
D|-----------------------------------------3~---33333---|
A|-----------------------------------------3~---33333---|
E|-----------------------------------------1~---11111---|
                                                .....
Gtr.1
e|------------------------------------------|
B|------------------------------------------|
G|-555------555-------5---5---5---5---555---|
D|-555-xxxx-555-xxxx--5-x-5-x-5-x-5---555---|
A|-333-xxxx-333-xxxx--3-x-3-x-3-x-3---333---|
E|-----xxxx-----xxxx----x---x---x-----------|

Gtr.2
e|----------------------------------------------------|
B|----------------------------------------------------|
G|-121212------121212-------12---12---12---12---555---|
D|-xxxxxx-xxxx-xxxxxx-xxxxx-xx-x-xx-x-xx-x-xx---555---|
A|-101010-xxxx-101010-xxxxx-10-x-10-x-10-x-10---333---|
E|--------xxxx--------xxxxx----x----x----x------------|

Bridge prt.3
e|---------------------------            ------------------------------|
B|---------------------------            ------------------------------|
G|-xxx-5-7/9--xxx-5-7/9-7-5-- Repeat     -----5------------------------|
D|--------------------------- Many Times -5-3-5--33333--7---3---5555---|
A|---------------------------            -5-3-3--33333--7---3---5555---|
E|---------------------------            -3-1----11111--5---1---3333---|
                                              .         .   .   ....

Outro Chorus:
e|----------------------------------------------------------------------------------|
B|----------------------------------------------------------------------------------|
G|-77777----------------------------------77777-------------------------------------|
D|-77777-55555--9-9-9-9--7-7-7-7--55555---77777-55555--99-xxx--77-xxx--5--5--5--7---|
A|-55555-55555--9-9-9-9--7-7-7-7--55555---55555-55555--99-xxx--77-xxx--5--5--5--7---|
E|-------33333--7-7-7-7--5-5-5-5--33333---------33333--77-xxx--55-xxx--3--3--3--5---|
                . . . .  . . . .                                                .

Outro:
Gtr.1
e|---------------------------------------------------------------------------------------|
B|---------------------------------------------------------------------------------------|
G|-7~-------7~----------------77777---------77777-----------------------------------7~---|
D|-7~---7-5-7~----------------77777-55555---77777--555-xxx-555-xxx-555-xxx--77--55--7~---|
A|-5~---7-5-5~----------------55555-55555---55555--555-xxx-555-xxx-555-xxx--77--55--5~---|
E|------5-3-------pickslide---------33333----------333-xxx-333-xxx-333-xxx--55--33-------|

Gtr.2
e|--------------------------------            -------------------------------------|
B|--------------------------------            -777-xxx-777-xxx-777-xxx-88--77-7~---|
G|-77-9-7-9/11-9-7--7-9-7-9/11-7-- Repeat     -777-xxx-777-xxx-777-xxx-77--77-7~---|
D|-------------------------------- Many Times -------------------------------------|
A|--------------------------------            -------------------------------------|
E|--------------------------------            -------------------------------------|

End...

Tap to rate this tab
# A B C D E F G H I J K L M N O P Q R S T U V W X Y Z