Kanteen - Gi Fingers chords

Highlighted       Show chord diagrams
GI FINGERS by Kantin


INTRO: D-Bm-G-A-; (2x)


VERSE:
D         Bm
 Pista sa amo
G            A
 ako nangimbitar
D          Bm
 Mikalit kadaghang bisita
    G              A
 ug wa jud ko magdahum...


REFRAIN:
G           A
 Naratol si Mama
       D        D/C#     Bm
 kay nahutdag gamit sa kusina
G       A
 maong ako nalang
G        A    D    A
 nangita ug paagi..


CHORUS: verse chord pattern pa rin..

Maong gi-fingers, gi-fingers nalang
kay wa nay kutsarag tinedor sa lamisa
Maong gi-fingers, gi-fingers nalang
kay akong amigo gigutom na..


VERSE:

Ako gayud nauwaw,
di na ko halos mutan-aw
maayo nalang ang
akong amigo mi-ingon...
"KINAWBOY LANG TA BRAD"


Rap: verse chord pattern..

Yeah funny it seems
we got a bunny on the table
light up the stage
as we hook up on the cable
We party, we're hungry, we're going to the fiesta... yeah!!!
but we've got no spoon, we've got no fork...
we barely got nothing to pick up the pork
and so we Fingers, oh yeah we Fingers!!
"KANA GUNG GI-KINAMOT UNSA MAN LAING GIPASABOT"


ADLIB: verse chord pattern..

e|-------------------------------------|
B|-------------------------------------|
G|---------7---7---9b-9b-9-7h9-7-9-7---|
D|-----7h9---9---9------------------9--|
A|-7h9---------------------------------|
E|-------------------------------------|

e|-7-10-12-10-7-10-12-10-12-12b-12b-12b-12-10-12-10--|
B|---------------------------------------------------|
G|---------------------------------------------------|
D|---------------------------------------------------|
A|---------------------------------------------------|
E|---------------------------------------------------|

e|-12-14-15-14-12-10-----|
B|-------------------12--|
G|-----------------------| 2x
D|-----------------------|
A|-----------------------|
E|-----------------------|

e|-10-14-15-14-12-14-12h14p12h14p12-10p9-10--|
B|-------------------------------------------|
G|-------------------------------------------|
D|-------------------------------------------|
A|-------------------------------------------|
E|-------------------------------------------|

*nakaka-asar yung tono nung chorus neto.. hehe..


NITRAM
06-07-10
10:28 PM
Tap to rate this tab
 
# A B C D E F G H I J K L M N O P Q R S T U V W X Y Z