Song name
# A B C D E F G H I J K L M N O P Q R S T U V W X Y Z

Kanye West - Devil In A New Dress tab

e ----------------------------------------------------|
B ----------------------------------------------------|
G -6h8-6h8~---6h8p6-------------6---6-----------------|
D ------------------9~------9-9---9-------------------|
A ------------------------------------9h11-9~////-----|
E ----------------------------------------------------|

e ------------------------------------------------|
B ------------------------------------------------|
G -6h8-6h8~---6h8p6------------6------------------|
D ------------------9~-------9---9----------------|
A ----------------------------------9h11-9~-------|
E ------------------------------------------------|

e ---------------------------------------------------------------------|
B -14~----------14h16-14h16~---14h16p14----------14--------------------|
G -----14h12----------------------------16~---16----16-----------------|
D ------------------------------------------------------16h17-16~-////-|
A ---------------------------------------------------------------------|
E ---------------------------------------------------------------------|

e ----------------------------------------------------|
B -14h16-14h16~---14h16p14----------------------------|
G -------------------------16~---16-------------------|
D -------------------------------------16h17-16~-////-|
A ----------------------------------------------------|
E ----------------------------------------------------|
Tap to rate this tab
 
# A B C D E F G H I J K L M N O P Q R S T U V W X Y Z