Song name
# A B C D E F G H I J K L M N O P Q R S T U V W X Y Z

Kanye West - All Falls Down tab

this song doesnt have much in it but the lst tab i looked at wasnt very good 

[------------------------]
[------------------------]
[------------------------]
[-14---13---12---11------]
[-14---13---12---11------]
[-12---11---10---9-------]


[------------------------]
[------------------------]
[--15--14--13h14--12-----]
[------------------------]
[------------------------]
[------------------------]

this is my first tab so if u like it let me know 

www.myspace.com/my_sister_is_ugly
Tap to rate this tab
 
# A B C D E F G H I J K L M N O P Q R S T U V W X Y Z